ISO-10303-21;
HEADER;
FILE_DESCRIPTION (( 'STEP AP214' ),
    '1' );
FILE_NAME ('1.35.608300.STEP',
    '2024-10-11T20:13:00',
    ( '' ),
    ( '' ),
    'SwSTEP 2.0',
    'SolidWorks 2024',
    '' );
FILE_SCHEMA (( 'AUTOMOTIVE_DESIGN' ));
ENDSEC;

DATA;
#1 = ORIENTED_EDGE ( 'NONE', *, *, #87, .T. ) ;
#2 = ORIENTED_EDGE ( 'NONE', *, *, #246, .T. ) ;
#3 = EDGE_CURVE ( 'NONE', #176, #153, #234, .T. ) ;
#4 = PRODUCT ( '1.35.608300', '1.35.608300', '', ( #165 ) ) ;
#5 = ORIENTED_EDGE ( 'NONE', *, *, #156, .T. ) ;
#6 = CYLINDRICAL_SURFACE ( 'NONE', #41, 3.323500000000000121 ) ;
#7 = CARTESIAN_POINT ( 'NONE',  ( 3.157196726277788912E-13, -30.00000000000000355, 0.000000000000000000 ) ) ;
#8 = CARTESIAN_POINT ( 'NONE',  ( 3.162095313474378318E-13, -30.00000000000000355, 4.000000000000000000 ) ) ;
#9 = DIRECTION ( 'NONE',  ( 0.000000000000000000, 0.000000000000000000, -1.000000000000000000 ) ) ;
#10 = AXIS2_PLACEMENT_3D ( 'NONE', #103, #84, #161 ) ;
#11 = APPLICATION_CONTEXT ( 'automotive_design' ) ;
#12 = CARTESIAN_POINT ( 'NONE',  ( 3.087807787238716628E-13, -29.32350000000000634, 3.323500000000000121 ) ) ;
#13 = FACE_BOUND ( 'NONE', #119, .T. ) ;
#14 = DIRECTION ( 'NONE',  ( 0.000000000000000000, 0.000000000000000000, -1.000000000000000000 ) ) ;
#15 = ADVANCED_FACE ( 'CYL_1', ( #217 ), #120, .F. ) ;
#16 = CARTESIAN_POINT ( 'NONE',  ( 1.554670430549434693E-13, -29.32350000000000634, -3.323500000000000121 ) ) ;
#17 = EDGE_CURVE ( 'NONE', #230, #153, #77, .T. ) ;
#18 = ADVANCED_FACE ( 'CYL_1', ( #20 ), #6, .F. ) ;
#19 = STYLED_ITEM ( 'NONE', ( #245 ), #173 ) ;
#20 = FACE_OUTER_BOUND ( 'NONE', #174, .T. ) ;
#21 = ORIENTED_EDGE ( 'NONE', *, *, #126, .F. ) ;
#22 = AXIS2_PLACEMENT_3D ( 'NONE', #91, #108, #149 ) ;
#23 = DIRECTION ( 'NONE',  ( -4.618527782440651208E-14, -4.837651069596027335E-28, -1.000000000000000000 ) ) ;
#24 = VERTEX_POINT ( 'NONE', #93 ) ;
#25 = ORIENTED_EDGE ( 'NONE', *, *, #233, .F. ) ;
#26 = FACE_BOUND ( 'NONE', #157, .T. ) ;
#27 = CARTESIAN_POINT ( 'NONE',  ( 3.164544607072673021E-13, -30.00000000000000355, -6.000000000000000000 ) ) ;
#28 = DIRECTION ( 'NONE',  ( 7.406550393246777493E-15, -0.7071067811865457964, -0.7071067811865492381 ) ) ;
#29 = CARTESIAN_POINT ( 'NONE',  ( 3.157196726277788912E-13, -30.00000000000000355, 0.000000000000000000 ) ) ;
#30 = CARTESIAN_POINT ( 'NONE',  ( 0.000000000000000000, 0.000000000000000000, 0.000000000000000000 ) ) ;
#31 = DIRECTION ( 'NONE',  ( 0.000000000000000000, 0.000000000000000000, -1.000000000000000000 ) ) ;
#32 = EDGE_CURVE ( 'NONE', #38, #198, #172, .T. ) ;
#33 = VECTOR ( 'NONE', #101, 1000.000000000000000 ) ;
#34 = APPLICATION_PROTOCOL_DEFINITION ( 'draft international standard', 'automotive_design', 1998, #11 ) ;
#35 = EDGE_LOOP ( 'NONE', ( #213, #79 ) ) ;
#36 = EDGE_CURVE ( 'NONE', #24, #40, #57, .T. ) ;
#37 = CIRCLE ( 'NONE', #100, 6.000000000000000000 ) ;
#38 = VERTEX_POINT ( 'NONE', #12 ) ;
#39 = EDGE_LOOP ( 'NONE', ( #134, #62, #214, #25 ) ) ;
#40 = VERTEX_POINT ( 'NONE', #69 ) ;
#41 = AXIS2_PLACEMENT_3D ( 'NONE', #82, #56, #115 ) ;
#42 = ORIENTED_EDGE ( 'NONE', *, *, #241, .F. ) ;
#43 = ORIENTED_EDGE ( 'NONE', *, *, #36, .T. ) ;
#44 = ADVANCED_FACE ( 'PLANAR_0', ( #201, #26 ), #47, .T. ) ;
#45 = DIRECTION ( 'NONE',  ( 1.047444401652940007E-14, -1.000000000000000000, 0.000000000000000000 ) ) ;
#46 = DIRECTION ( 'NONE',  ( 0.000000000000000000, 0.000000000000000000, 1.000000000000000000 ) ) ;
#47 = PLANE ( 'NONE',  #95 ) ;
#48 = EDGE_CURVE ( 'NONE', #176, #129, #221, .T. ) ;
#49 = FACE_OUTER_BOUND ( 'NONE', #197, .T. ) ;
#50 = CARTESIAN_POINT ( 'NONE',  ( 3.157196726277788912E-13, -30.00000000000000355, 0.000000000000000000 ) ) ;
#51 = CONICAL_SURFACE ( 'NONE', #146, 4.000000000000000000, 0.7853981633974508325 ) ;
#52 = DIRECTION ( 'NONE',  ( 1.047444401652940007E-14, -1.000000000000000000, 0.000000000000000000 ) ) ;
#53 = CARTESIAN_POINT ( 'NONE',  ( 3.157196726277788912E-13, -30.00000000000000355, 0.000000000000000000 ) ) ;
#54 = AXIS2_PLACEMENT_3D ( 'NONE', #88, #226, #113 ) ;
#55 = SURFACE_SIDE_STYLE ('',( #142 ) ) ;
#56 = DIRECTION ( 'NONE',  ( -1.047444401652940007E-14, 1.000000000000000000, 0.000000000000000000 ) ) ;
#57 = CIRCLE ( 'NONE', #150, 6.000000000000000000 ) ;
#58 = ORIENTED_EDGE ( 'NONE', *, *, #68, .T. ) ;
#59 = ADVANCED_FACE ( 'CYL_0', ( #49 ), #140, .T. ) ;
#60 = CARTESIAN_POINT ( 'NONE',  ( 0.000000000000000000, 0.000000000000000000, 0.000000000000000000 ) ) ;
#61 = PRODUCT_DEFINITION_SHAPE ( 'NONE', 'NONE',  #167 ) ;
#62 = ORIENTED_EDGE ( 'NONE', *, *, #114, .T. ) ;
#63 = AXIS2_PLACEMENT_3D ( 'NONE', #242, #139, #46 ) ;
#64 = DIRECTION ( 'NONE',  ( 0.000000000000000000, 0.000000000000000000, -1.000000000000000000 ) ) ;
#65 = DIRECTION ( 'NONE',  ( 0.000000000000000000, 0.000000000000000000, -1.000000000000000000 ) ) ;
#66 = DIRECTION ( 'NONE',  ( 0.000000000000000000, 0.000000000000000000, -1.000000000000000000 ) ) ;
#67 = AXIS2_PLACEMENT_3D ( 'NONE', #203, #159, #9 ) ;
#68 = EDGE_CURVE ( 'NONE', #153, #230, #235, .T. ) ;
#69 = CARTESIAN_POINT ( 'NONE',  ( 1.586030123798378776E-13, -30.00000000000000355, 6.000000000000000000 ) ) ;
#70 = CYLINDRICAL_SURFACE ( 'NONE', #154, 6.000000000000000000 ) ;
#71 = SHAPE_DEFINITION_REPRESENTATION ( #61, #131 ) ;
#72 = CARTESIAN_POINT ( 'NONE',  ( 3.162095313474378318E-13, -30.00000000000000355, 4.000000000000000000 ) ) ;
#73 = CIRCLE ( 'NONE', #67, 6.000000000000000000 ) ;
#74 =( NAMED_UNIT ( * ) PLANE_ANGLE_UNIT ( ) SI_UNIT ( $, .RADIAN. ) );
#75 = ORIENTED_EDGE ( 'NONE', *, *, #156, .F. ) ;
#76 = ORIENTED_EDGE ( 'NONE', *, *, #36, .F. ) ;
#77 = CIRCLE ( 'NONE', #81, 3.323500000000000121 ) ;
#78 = DIRECTION ( 'NONE',  ( -1.047444401652940007E-14, 1.000000000000000000, 0.000000000000000000 ) ) ;
#79 = ORIENTED_EDGE ( 'NONE', *, *, #246, .F. ) ;
#80 = ORIENTED_EDGE ( 'NONE', *, *, #3, .F. ) ;
#81 = AXIS2_PLACEMENT_3D ( 'NONE', #60, #175, #23 ) ;
#82 = CARTESIAN_POINT ( 'NONE',  ( 3.157196726277788912E-13, -30.00000000000000355, 0.000000000000000000 ) ) ;
#83 = DIRECTION ( 'NONE',  ( 0.000000000000000000, 0.000000000000000000, -1.000000000000000000 ) ) ;
#84 = DIRECTION ( 'NONE',  ( -1.047444401652940007E-14, 1.000000000000000000, -0.000000000000000000 ) ) ;
#85 = DIRECTION ( 'NONE',  ( -1.047444401652940007E-14, 1.000000000000000000, -0.000000000000000000 ) ) ;
#86 = DIRECTION ( 'NONE',  ( 1.047444401652940007E-14, -1.000000000000000000, 0.000000000000000000 ) ) ;
#87 = EDGE_CURVE ( 'NONE', #40, #24, #73, .T. ) ;
#88 = CARTESIAN_POINT ( 'NONE',  ( 0.000000000000000000, 0.000000000000000000, 0.000000000000000000 ) ) ;
#89 = CIRCLE ( 'NONE', #122, 4.000000000000000000 ) ;
#90 = EDGE_CURVE ( 'NONE', #129, #198, #89, .T. ) ;
#91 = CARTESIAN_POINT ( 'NONE',  ( 3.157196726277788912E-13, -30.00000000000000355, 0.000000000000000000 ) ) ;
#92 = VERTEX_POINT ( 'NONE', #184 ) ;
#93 = CARTESIAN_POINT ( 'NONE',  ( 1.593378004593263137E-13, -30.00000000000000355, -6.000000000000000000 ) ) ;
#94 = CARTESIAN_POINT ( 'NONE',  ( 3.161266839914755092E-13, -30.00000000000000355, -3.323500000000000121 ) ) ;
#95 = AXIS2_PLACEMENT_3D ( 'NONE', #7, #125, #83 ) ;
#96 = MECHANICAL_DESIGN_GEOMETRIC_PRESENTATION_REPRESENTATION (  '', ( #19 ), #207 ) ;
#97 = ORIENTED_EDGE ( 'NONE', *, *, #48, .F. ) ;
#98 = ORIENTED_EDGE ( 'NONE', *, *, #3, .T. ) ;
#99 = VERTEX_POINT ( 'NONE', #222 ) ;
#100 = AXIS2_PLACEMENT_3D ( 'NONE', #208, #52, #130 ) ;
#101 = DIRECTION ( 'NONE',  ( -1.047444401652940007E-14, 1.000000000000000000, 0.000000000000000000 ) ) ;
#102 = LINE ( 'NONE', #238, #33 ) ;
#103 = CARTESIAN_POINT ( 'NONE',  ( 3.157196726277788912E-13, -30.00000000000000355, 0.000000000000000000 ) ) ;
#104 = DIRECTION ( 'NONE',  ( 0.000000000000000000, 0.000000000000000000, 1.000000000000000000 ) ) ;
#105 = CARTESIAN_POINT ( 'NONE',  ( 1.554670430549434693E-13, 1.628430838894371054E-27, -3.323500000000000121 ) ) ;
#106 = APPLICATION_CONTEXT ( 'automotive_design' ) ;
#107 =( LENGTH_UNIT ( ) NAMED_UNIT ( * ) SI_UNIT ( .MILLI., .METRE. ) );
#108 = DIRECTION ( 'NONE',  ( -1.047444401652940007E-14, 1.000000000000000000, 0.000000000000000000 ) ) ;
#109 = AXIS2_PLACEMENT_3D ( 'NONE', #199, #86, #64 ) ;
#110 = EDGE_CURVE ( 'NONE', #99, #92, #127, .T. ) ;
#111 = EDGE_LOOP ( 'NONE', ( #76, #5, #2, #42 ) ) ;
#112 = CARTESIAN_POINT ( 'NONE',  ( 1.550600316912468260E-13, 1.624167621151239480E-27, 3.323500000000000121 ) ) ;
#113 = DIRECTION ( 'NONE',  ( 1.000000000000000000, 0.000000000000000000, 0.000000000000000000 ) ) ;
#114 = EDGE_CURVE ( 'NONE', #38, #176, #229, .T. ) ;
#115 = DIRECTION ( 'NONE',  ( 0.000000000000000000, 0.000000000000000000, 1.000000000000000000 ) ) ;
#116 = ORIENTED_EDGE ( 'NONE', *, *, #68, .F. ) ;
#117 = ORIENTED_EDGE ( 'NONE', *, *, #114, .F. ) ;
#118 = VECTOR ( 'NONE', #28, 1000.000000000000114 ) ;
#119 = EDGE_LOOP ( 'NONE', ( #138, #116 ) ) ;
#120 = CYLINDRICAL_SURFACE ( 'NONE', #244, 3.323500000000000121 ) ;
#121 = DIRECTION ( 'NONE',  ( 7.493145998870327339E-15, -0.7071067811865457964, 0.7071067811865492381 ) ) ;
#122 = AXIS2_PLACEMENT_3D ( 'NONE', #29, #219, #104 ) ;
#123 = CARTESIAN_POINT ( 'NONE',  ( 3.157196726277788912E-13, -30.00000000000000355, -4.000000000000000000 ) ) ;
#124 = DIRECTION ( 'NONE',  ( -1.047444401652940007E-14, 1.000000000000000000, -0.000000000000000000 ) ) ;
#125 = DIRECTION ( 'NONE',  ( 1.047444401652940007E-14, -1.000000000000000000, 0.000000000000000000 ) ) ;
#126 = EDGE_CURVE ( 'NONE', #176, #38, #216, .T. ) ;
#127 = CIRCLE ( 'NONE', #109, 6.000000000000000000 ) ;
#128 = FACE_OUTER_BOUND ( 'NONE', #111, .T. ) ;
#129 = VERTEX_POINT ( 'NONE', #123 ) ;
#130 = DIRECTION ( 'NONE',  ( 0.000000000000000000, 0.000000000000000000, -1.000000000000000000 ) ) ;
#131 = ADVANCED_BREP_SHAPE_REPRESENTATION ( '1.35.608300', ( #173, #54 ), #227 ) ;
#132 = ORIENTED_EDGE ( 'NONE', *, *, #233, .T. ) ;
#133 = VECTOR ( 'NONE', #85, 1000.000000000000000 ) ;
#134 = ORIENTED_EDGE ( 'NONE', *, *, #32, .F. ) ;
#135 = EDGE_LOOP ( 'NONE', ( #194, #231, #209, #97 ) ) ;
#136 = EDGE_LOOP ( 'NONE', ( #80, #117, #249, #228 ) ) ;
#137 = AXIS2_PLACEMENT_3D ( 'NONE', #236, #45, #66 ) ;
#138 = ORIENTED_EDGE ( 'NONE', *, *, #17, .F. ) ;
#139 = DIRECTION ( 'NONE',  ( -1.047444401652940007E-14, 1.000000000000000000, 0.000000000000000000 ) ) ;
#140 = CYLINDRICAL_SURFACE ( 'NONE', #10, 6.000000000000000000 ) ;
#141 = FILL_AREA_STYLE_COLOUR ( '', #195 ) ;
#142 = SURFACE_STYLE_FILL_AREA ( #240 ) ;
#143 = ADVANCED_FACE ( 'CYL_0', ( #128 ), #70, .T. ) ;
#144 = CARTESIAN_POINT ( 'NONE',  ( 3.157196726277788912E-13, -30.00000000000000355, 0.000000000000000000 ) ) ;
#145 = PRODUCT_DEFINITION_CONTEXT ( 'detailed design', #11, 'design' ) ;
#146 = AXIS2_PLACEMENT_3D ( 'NONE', #53, #185, #31 ) ;
#147 = PRODUCT_RELATED_PRODUCT_CATEGORY ( 'part', '', ( #4 ) ) ;
#148 =( NAMED_UNIT ( * ) SI_UNIT ( $, .STERADIAN. ) SOLID_ANGLE_UNIT ( ) );
#149 = DIRECTION ( 'NONE',  ( 0.000000000000000000, 0.000000000000000000, 1.000000000000000000 ) ) ;
#150 = AXIS2_PLACEMENT_3D ( 'NONE', #50, #163, #160 ) ;
#151 =( NAMED_UNIT ( * ) SI_UNIT ( $, .STERADIAN. ) SOLID_ANGLE_UNIT ( ) );
#152 = EDGE_LOOP ( 'NONE', ( #1, #43 ) ) ;
#153 = VERTEX_POINT ( 'NONE', #105 ) ;
#154 = AXIS2_PLACEMENT_3D ( 'NONE', #144, #200, #218 ) ;
#155 = ORIENTED_EDGE ( 'NONE', *, *, #110, .T. ) ;
#156 = EDGE_CURVE ( 'NONE', #24, #92, #204, .T. ) ;
#157 = EDGE_LOOP ( 'NONE', ( #212, #132 ) ) ;
#158 = ORIENTED_EDGE ( 'NONE', *, *, #241, .T. ) ;
#159 = DIRECTION ( 'NONE',  ( 1.047444401652940007E-14, -1.000000000000000000, 0.000000000000000000 ) ) ;
#160 = DIRECTION ( 'NONE',  ( 0.000000000000000000, 0.000000000000000000, -1.000000000000000000 ) ) ;
#161 = DIRECTION ( 'NONE',  ( 0.000000000000000000, 0.000000000000000000, 1.000000000000000000 ) ) ;
#162 = AXIS2_PLACEMENT_3D ( 'NONE', #179, #210, #14 ) ;
#163 = DIRECTION ( 'NONE',  ( 1.047444401652940007E-14, -1.000000000000000000, 0.000000000000000000 ) ) ;
#164 = DIRECTION ( 'NONE',  ( 0.000000000000000000, 0.000000000000000000, 1.000000000000000000 ) ) ;
#165 = PRODUCT_CONTEXT ( 'NONE', #106, 'mechanical' ) ;
#166 = VECTOR ( 'NONE', #232, 1000.000000000000000 ) ;
#167 = PRODUCT_DEFINITION ( 'UNKNOWN', '', #196, #145 ) ;
#168 = CARTESIAN_POINT ( 'NONE',  ( 3.157196726277788912E-13, -30.00000000000000355, 6.000000000000000000 ) ) ;
#169 = EDGE_CURVE ( 'NONE', #38, #230, #102, .T. ) ;
#170 = CIRCLE ( 'NONE', #22, 4.000000000000000000 ) ;
#171 = ADVANCED_FACE ( 'PLANAR_1', ( #180, #13 ), #181, .F. ) ;
#172 = LINE ( 'NONE', #8, #220 ) ;
#173 = MANIFOLD_SOLID_BREP ( 'Body-Move/Copy2', #211 ) ;
#174 = EDGE_LOOP ( 'NONE', ( #21, #98, #58, #191 ) ) ;
#175 = DIRECTION ( 'NONE',  ( -1.047444401652940007E-14, 1.000000000000000000, -0.000000000000000000 ) ) ;
#176 = VERTEX_POINT ( 'NONE', #16 ) ;
#177 = ADVANCED_FACE ( 'CONE_0', ( #225 ), #224, .F. ) ;
#178 = CARTESIAN_POINT ( 'NONE',  ( 3.157196726277788912E-13, -30.00000000000000355, 0.000000000000000000 ) ) ;
#179 = CARTESIAN_POINT ( 'NONE',  ( 3.157196726277788912E-13, -30.00000000000000355, 0.000000000000000000 ) ) ;
#180 = FACE_OUTER_BOUND ( 'NONE', #35, .T. ) ;
#181 = PLANE ( 'NONE',  #137 ) ;
#182 = AXIS2_PLACEMENT_3D ( 'NONE', #30, #124, #65 ) ;
#183 = CARTESIAN_POINT ( 'NONE',  ( 3.087807787238716628E-13, -29.32350000000000634, 0.000000000000000000 ) ) ;
#184 = CARTESIAN_POINT ( 'NONE',  ( 1.593378004593263137E-13, 1.668974870628145693E-27, -6.000000000000000000 ) ) ;
#185 = DIRECTION ( 'NONE',  ( 1.047444401652940007E-14, -1.000000000000000000, 0.000000000000000000 ) ) ;
#186 = UNCERTAINTY_MEASURE_WITH_UNIT (LENGTH_MEASURE( 1.000000000000000082E-05 ), #107, 'distance_accuracy_value', 'NONE');
#187 = DIRECTION ( 'NONE',  ( -1.047444401652940007E-14, 1.000000000000000000, -0.000000000000000000 ) ) ;
#188 = FACE_OUTER_BOUND ( 'NONE', #135, .T. ) ;
#189 = APPLICATION_PROTOCOL_DEFINITION ( 'draft international standard', 'automotive_design', 1998, #106 ) ;
#190 = VECTOR ( 'NONE', #187, 1000.000000000000000 ) ;
#191 = ORIENTED_EDGE ( 'NONE', *, *, #169, .F. ) ;
#192 = ADVANCED_FACE ( 'CONE_0', ( #188 ), #51, .F. ) ;
#193 = ORIENTED_EDGE ( 'NONE', *, *, #87, .F. ) ;
#194 = ORIENTED_EDGE ( 'NONE', *, *, #126, .T. ) ;
#195 = COLOUR_RGB ( '',0.7921568627450980005, 0.8196078431372548767, 0.9333333333333333481 ) ;
#196 = PRODUCT_DEFINITION_FORMATION_WITH_SPECIFIED_SOURCE ( 'ANY', '', #4, .NOT_KNOWN. ) ;
#197 = EDGE_LOOP ( 'NONE', ( #75, #193, #158, #155 ) ) ;
#198 = VERTEX_POINT ( 'NONE', #72 ) ;
#199 = CARTESIAN_POINT ( 'NONE',  ( 0.000000000000000000, 0.000000000000000000, 0.000000000000000000 ) ) ;
#200 = DIRECTION ( 'NONE',  ( -1.047444401652940007E-14, 1.000000000000000000, -0.000000000000000000 ) ) ;
#201 = FACE_OUTER_BOUND ( 'NONE', #152, .T. ) ;
#202 = UNCERTAINTY_MEASURE_WITH_UNIT (LENGTH_MEASURE( 1.000000000000000082E-05 ), #206, 'distance_accuracy_value', 'NONE');
#203 = CARTESIAN_POINT ( 'NONE',  ( 3.157196726277788912E-13, -30.00000000000000355, 0.000000000000000000 ) ) ;
#204 = LINE ( 'NONE', #27, #133 ) ;
#205 =( NAMED_UNIT ( * ) PLANE_ANGLE_UNIT ( ) SI_UNIT ( $, .RADIAN. ) );
#206 =( LENGTH_UNIT ( ) NAMED_UNIT ( * ) SI_UNIT ( .MILLI., .METRE. ) );
#207 =( GEOMETRIC_REPRESENTATION_CONTEXT ( 3 ) GLOBAL_UNCERTAINTY_ASSIGNED_CONTEXT ( ( #186 ) ) GLOBAL_UNIT_ASSIGNED_CONTEXT ( ( #107, #205, #151 ) ) REPRESENTATION_CONTEXT ( 'NONE', 'WORKASPACE' ) );
#208 = CARTESIAN_POINT ( 'NONE',  ( 0.000000000000000000, 0.000000000000000000, 0.000000000000000000 ) ) ;
#209 = ORIENTED_EDGE ( 'NONE', *, *, #90, .F. ) ;
#210 = DIRECTION ( 'NONE',  ( 1.047444401652940007E-14, -1.000000000000000000, 0.000000000000000000 ) ) ;
#211 = CLOSED_SHELL ( 'NONE', ( #192, #18, #143, #44, #171, #59, #15, #177 ) ) ;
#212 = ORIENTED_EDGE ( 'NONE', *, *, #90, .T. ) ;
#213 = ORIENTED_EDGE ( 'NONE', *, *, #110, .F. ) ;
#214 = ORIENTED_EDGE ( 'NONE', *, *, #48, .T. ) ;
#215 = DIRECTION ( 'NONE',  ( 0.000000000000000000, 0.000000000000000000, 1.000000000000000000 ) ) ;
#216 = CIRCLE ( 'NONE', #63, 3.323500000000000121 ) ;
#217 = FACE_OUTER_BOUND ( 'NONE', #136, .T. ) ;
#218 = DIRECTION ( 'NONE',  ( 0.000000000000000000, 0.000000000000000000, 1.000000000000000000 ) ) ;
#219 = DIRECTION ( 'NONE',  ( -1.047444401652940007E-14, 1.000000000000000000, 0.000000000000000000 ) ) ;
#220 = VECTOR ( 'NONE', #121, 1000.000000000000114 ) ;
#221 = LINE ( 'NONE', #237, #118 ) ;
#222 = CARTESIAN_POINT ( 'NONE',  ( 1.586030123798378776E-13, 1.661278374025531129E-27, 6.000000000000000000 ) ) ;
#223 = DIRECTION ( 'NONE',  ( -1.047444401652940007E-14, 1.000000000000000000, 0.000000000000000000 ) ) ;
#224 = CONICAL_SURFACE ( 'NONE', #162, 4.000000000000000000, 0.7853981633974508325 ) ;
#225 = FACE_OUTER_BOUND ( 'NONE', #39, .T. ) ;
#226 = DIRECTION ( 'NONE',  ( 0.000000000000000000, 0.000000000000000000, 1.000000000000000000 ) ) ;
#227 =( GEOMETRIC_REPRESENTATION_CONTEXT ( 3 ) GLOBAL_UNCERTAINTY_ASSIGNED_CONTEXT ( ( #202 ) ) GLOBAL_UNIT_ASSIGNED_CONTEXT ( ( #206, #74, #148 ) ) REPRESENTATION_CONTEXT ( 'NONE', 'WORKASPACE' ) );
#228 = ORIENTED_EDGE ( 'NONE', *, *, #17, .T. ) ;
#229 = CIRCLE ( 'NONE', #248, 3.323500000000000121 ) ;
#230 = VERTEX_POINT ( 'NONE', #112 ) ;
#231 = ORIENTED_EDGE ( 'NONE', *, *, #32, .T. ) ;
#232 = DIRECTION ( 'NONE',  ( -1.047444401652940007E-14, 1.000000000000000000, 0.000000000000000000 ) ) ;
#233 = EDGE_CURVE ( 'NONE', #198, #129, #170, .T. ) ;
#234 = LINE ( 'NONE', #94, #166 ) ;
#235 = CIRCLE ( 'NONE', #182, 3.323500000000000121 ) ;
#236 = CARTESIAN_POINT ( 'NONE',  ( 0.000000000000000000, 0.000000000000000000, 0.000000000000000000 ) ) ;
#237 = CARTESIAN_POINT ( 'NONE',  ( 3.157196726277788912E-13, -30.00000000000000355, -4.000000000000000000 ) ) ;
#238 = CARTESIAN_POINT ( 'NONE',  ( 3.157196726277788912E-13, -30.00000000000000355, 3.323500000000000121 ) ) ;
#239 = PRESENTATION_LAYER_ASSIGNMENT (  '', '', ( #19 ) ) ;
#240 = FILL_AREA_STYLE ('',( #141 ) ) ;
#241 = EDGE_CURVE ( 'NONE', #40, #99, #243, .T. ) ;
#242 = CARTESIAN_POINT ( 'NONE',  ( 3.087807787238716628E-13, -29.32350000000000634, 0.000000000000000000 ) ) ;
#243 = LINE ( 'NONE', #168, #190 ) ;
#244 = AXIS2_PLACEMENT_3D ( 'NONE', #178, #78, #215 ) ;
#245 = PRESENTATION_STYLE_ASSIGNMENT (( #247 ) ) ;
#246 = EDGE_CURVE ( 'NONE', #92, #99, #37, .T. ) ;
#247 = SURFACE_STYLE_USAGE ( .BOTH. , #55 ) ;
#248 = AXIS2_PLACEMENT_3D ( 'NONE', #183, #223, #164 ) ;
#249 = ORIENTED_EDGE ( 'NONE', *, *, #169, .T. ) ;
ENDSEC;
END-ISO-10303-21;
