ISO-10303-21;
HEADER;
FILE_DESCRIPTION (( 'STEP AP214' ),
    '1' );
FILE_NAME ('1.35.606300.STEP',
    '2024-10-11T20:12:40',
    ( '' ),
    ( '' ),
    'SwSTEP 2.0',
    'SolidWorks 2024',
    '' );
FILE_SCHEMA (( 'AUTOMOTIVE_DESIGN' ));
ENDSEC;

DATA;
#1 = ORIENTED_EDGE ( 'NONE', *, *, #233, .T. ) ;
#2 = ADVANCED_FACE ( 'CYL_0', ( #150 ), #76, .T. ) ;
#3 = DIRECTION ( 'NONE',  ( 1.000000000000000000, 0.000000000000000000, 0.000000000000000000 ) ) ;
#4 = VERTEX_POINT ( 'NONE', #181 ) ;
#5 = CIRCLE ( 'NONE', #241, 6.000000000000000000 ) ;
#6 = FILL_AREA_STYLE_COLOUR ( '', #90 ) ;
#7 = DIRECTION ( 'NONE',  ( -1.047444401652940007E-14, 1.000000000000000000, -0.000000000000000000 ) ) ;
#8 = AXIS2_PLACEMENT_3D ( 'NONE', #183, #51, #14 ) ;
#9 = FILL_AREA_STYLE ('',( #6 ) ) ;
#10 = PRODUCT_DEFINITION ( 'UNKNOWN', '', #235, #72 ) ;
#11 = FACE_OUTER_BOUND ( 'NONE', #41, .T. ) ;
#12 = DIRECTION ( 'NONE',  ( -1.047444401652940007E-14, 1.000000000000000000, 0.000000000000000000 ) ) ;
#13 = VECTOR ( 'NONE', #202, 1000.000000000000000 ) ;
#14 = DIRECTION ( 'NONE',  ( 0.000000000000000000, 0.000000000000000000, -1.000000000000000000 ) ) ;
#15 = EDGE_CURVE ( 'NONE', #211, #213, #153, .T. ) ;
#16 = CARTESIAN_POINT ( 'NONE',  ( 0.000000000000000000, 0.000000000000000000, 0.000000000000000000 ) ) ;
#17 = FACE_OUTER_BOUND ( 'NONE', #149, .T. ) ;
#18 = AXIS2_PLACEMENT_3D ( 'NONE', #60, #7, #216 ) ;
#19 = DIRECTION ( 'NONE',  ( 7.493145998870346272E-15, -0.7071067811865475727, 0.7071067811865474617 ) ) ;
#20 = DIRECTION ( 'NONE',  ( 0.000000000000000000, 0.000000000000000000, -1.000000000000000000 ) ) ;
#21 = EDGE_LOOP ( 'NONE', ( #22, #97 ) ) ;
#22 = ORIENTED_EDGE ( 'NONE', *, *, #89, .F. ) ;
#23 = ADVANCED_FACE ( 'CYL_1', ( #94 ), #134, .F. ) ;
#24 =( LENGTH_UNIT ( ) NAMED_UNIT ( * ) SI_UNIT ( .MILLI., .METRE. ) );
#25 = VERTEX_POINT ( 'NONE', #45 ) ;
#26 = ORIENTED_EDGE ( 'NONE', *, *, #223, .F. ) ;
#27 = CARTESIAN_POINT ( 'NONE',  ( 3.157196726277788912E-13, -30.00000000000000355, 0.000000000000000000 ) ) ;
#28 = DIRECTION ( 'NONE',  ( -1.047444401652940007E-14, 1.000000000000000000, 0.000000000000000000 ) ) ;
#29 = AXIS2_PLACEMENT_3D ( 'NONE', #81, #12, #77 ) ;
#30 = DIRECTION ( 'NONE',  ( 1.047444401652940007E-14, -1.000000000000000000, 0.000000000000000000 ) ) ;
#31 = CARTESIAN_POINT ( 'NONE',  ( 3.157196726277788912E-13, -30.00000000000000355, 6.000000000000000000 ) ) ;
#32 = CARTESIAN_POINT ( 'NONE',  ( 3.157196726277788912E-13, -30.00000000000000355, -3.000000000000000000 ) ) ;
#33 = VECTOR ( 'NONE', #249, 1000.000000000000000 ) ;
#34 = DIRECTION ( 'NONE',  ( 0.000000000000000000, 0.000000000000000000, -1.000000000000000000 ) ) ;
#35 = ORIENTED_EDGE ( 'NONE', *, *, #126, .F. ) ;
#36 = CIRCLE ( 'NONE', #80, 2.458499999999999908 ) ;
#37 =( GEOMETRIC_REPRESENTATION_CONTEXT ( 3 ) GLOBAL_UNCERTAINTY_ASSIGNED_CONTEXT ( ( #55 ) ) GLOBAL_UNIT_ASSIGNED_CONTEXT ( ( #165, #146, #230 ) ) REPRESENTATION_CONTEXT ( 'NONE', 'WORKASPACE' ) );
#38 = MANIFOLD_SOLID_BREP ( 'Body-Move/Copy2', #197 ) ;
#39 = ORIENTED_EDGE ( 'NONE', *, *, #118, .T. ) ;
#40 = CIRCLE ( 'NONE', #64, 3.000000000000000000 ) ;
#41 = EDGE_LOOP ( 'NONE', ( #87, #42 ) ) ;
#42 = ORIENTED_EDGE ( 'NONE', *, *, #126, .T. ) ;
#43 = EDGE_LOOP ( 'NONE', ( #91, #39, #116, #214 ) ) ;
#44 = EDGE_CURVE ( 'NONE', #232, #152, #115, .T. ) ;
#45 = CARTESIAN_POINT ( 'NONE',  ( 3.087807787238716628E-13, -29.45850000000000080, 2.458499999999999908 ) ) ;
#46 = AXIS2_PLACEMENT_3D ( 'NONE', #86, #167, #20 ) ;
#47 = ORIENTED_EDGE ( 'NONE', *, *, #143, .T. ) ;
#48 = LINE ( 'NONE', #243, #75 ) ;
#49 = ADVANCED_FACE ( 'PLANAR_0', ( #11, #157 ), #154, .T. ) ;
#50 = CARTESIAN_POINT ( 'NONE',  ( 3.157196726277788912E-13, -30.00000000000000355, 0.000000000000000000 ) ) ;
#51 = DIRECTION ( 'NONE',  ( 1.047444401652940007E-14, -1.000000000000000000, 0.000000000000000000 ) ) ;
#52 = DIRECTION ( 'NONE',  ( 0.000000000000000000, 0.000000000000000000, 1.000000000000000000 ) ) ;
#53 = FACE_OUTER_BOUND ( 'NONE', #144, .T. ) ;
#54 = ORIENTED_EDGE ( 'NONE', *, *, #199, .T. ) ;
#55 = UNCERTAINTY_MEASURE_WITH_UNIT (LENGTH_MEASURE( 1.000000000000000082E-05 ), #165, 'distance_accuracy_value', 'NONE');
#56 = PRODUCT_RELATED_PRODUCT_CATEGORY ( 'part', '', ( #166 ) ) ;
#57 = ORIENTED_EDGE ( 'NONE', *, *, #220, .F. ) ;
#58 = EDGE_LOOP ( 'NONE', ( #132, #136 ) ) ;
#59 = CONICAL_SURFACE ( 'NONE', #95, 3.000000000000000000, 0.7853981633974482790 ) ;
#60 = CARTESIAN_POINT ( 'NONE',  ( 3.157196726277788912E-13, -30.00000000000000355, 0.000000000000000000 ) ) ;
#61 =( NAMED_UNIT ( * ) PLANE_ANGLE_UNIT ( ) SI_UNIT ( $, .RADIAN. ) );
#62 = SURFACE_SIDE_STYLE ('',( #176 ) ) ;
#63 = CARTESIAN_POINT ( 'NONE',  ( 3.157196726277788912E-13, -30.00000000000000355, 0.000000000000000000 ) ) ;
#64 = AXIS2_PLACEMENT_3D ( 'NONE', #164, #226, #242 ) ;
#65 = SHAPE_DEFINITION_REPRESENTATION ( #140, #210 ) ;
#66 = CARTESIAN_POINT ( 'NONE',  ( 3.157196726277788912E-13, -30.00000000000000355, -3.000000000000000000 ) ) ;
#67 = CARTESIAN_POINT ( 'NONE',  ( 0.000000000000000000, 0.000000000000000000, 0.000000000000000000 ) ) ;
#68 = DIRECTION ( 'NONE',  ( 0.000000000000000000, 0.000000000000000000, -1.000000000000000000 ) ) ;
#69 = CARTESIAN_POINT ( 'NONE',  ( 1.557670566623625547E-13, 1.631573314629479380E-27, 2.458499999999999908 ) ) ;
#70 = CARTESIAN_POINT ( 'NONE',  ( 0.000000000000000000, 0.000000000000000000, 0.000000000000000000 ) ) ;
#71 = ORIENTED_EDGE ( 'NONE', *, *, #207, .T. ) ;
#72 = PRODUCT_DEFINITION_CONTEXT ( 'detailed design', #92, 'design' ) ;
#73 = PRODUCT_CONTEXT ( 'NONE', #78, 'mechanical' ) ;
#74 = CARTESIAN_POINT ( 'NONE',  ( 3.157196726277788912E-13, -30.00000000000000355, 0.000000000000000000 ) ) ;
#75 = VECTOR ( 'NONE', #137, 1000.000000000000000 ) ;
#76 = CYLINDRICAL_SURFACE ( 'NONE', #18, 6.000000000000000000 ) ;
#77 = DIRECTION ( 'NONE',  ( 0.000000000000000000, 0.000000000000000000, 1.000000000000000000 ) ) ;
#78 = APPLICATION_CONTEXT ( 'automotive_design' ) ;
#79 = AXIS2_PLACEMENT_3D ( 'NONE', #244, #247, #122 ) ;
#80 = AXIS2_PLACEMENT_3D ( 'NONE', #67, #159, #160 ) ;
#81 = CARTESIAN_POINT ( 'NONE',  ( 3.157196726277788912E-13, -30.00000000000000355, 0.000000000000000000 ) ) ;
#82 = DIRECTION ( 'NONE',  ( 1.047444401652940007E-14, -1.000000000000000000, 0.000000000000000000 ) ) ;
#83 = DIRECTION ( 'NONE',  ( -1.047444401652940007E-14, 1.000000000000000000, -0.000000000000000000 ) ) ;
#84 = CIRCLE ( 'NONE', #234, 2.458499999999999908 ) ;
#85 = DIRECTION ( 'NONE',  ( 0.000000000000000000, 0.000000000000000000, -1.000000000000000000 ) ) ;
#86 = CARTESIAN_POINT ( 'NONE',  ( 3.157196726277788912E-13, -30.00000000000000355, 0.000000000000000000 ) ) ;
#87 = ORIENTED_EDGE ( 'NONE', *, *, #223, .T. ) ;
#88 = APPLICATION_PROTOCOL_DEFINITION ( 'draft international standard', 'automotive_design', 1998, #78 ) ;
#89 = EDGE_CURVE ( 'NONE', #200, #4, #36, .T. ) ;
#90 = COLOUR_RGB ( '',0.7921568627450980005, 0.8196078431372548767, 0.9333333333333333481 ) ;
#91 = ORIENTED_EDGE ( 'NONE', *, *, #207, .F. ) ;
#92 = APPLICATION_CONTEXT ( 'automotive_design' ) ;
#93 = UNCERTAINTY_MEASURE_WITH_UNIT (LENGTH_MEASURE( 1.000000000000000082E-05 ), #24, 'distance_accuracy_value', 'NONE');
#94 = FACE_OUTER_BOUND ( 'NONE', #43, .T. ) ;
#95 = AXIS2_PLACEMENT_3D ( 'NONE', #204, #186, #85 ) ;
#96 = VERTEX_POINT ( 'NONE', #182 ) ;
#97 = ORIENTED_EDGE ( 'NONE', *, *, #229, .F. ) ;
#98 = ADVANCED_FACE ( 'CYL_1', ( #53 ), #138, .F. ) ;
#99 = ORIENTED_EDGE ( 'NONE', *, *, #130, .T. ) ;
#100 = DIRECTION ( 'NONE',  ( 0.000000000000000000, 0.000000000000000000, -1.000000000000000000 ) ) ;
#101 = DIRECTION ( 'NONE',  ( 0.000000000000000000, 0.000000000000000000, 1.000000000000000000 ) ) ;
#102 = CYLINDRICAL_SURFACE ( 'NONE', #79, 6.000000000000000000 ) ;
#103 = CARTESIAN_POINT ( 'NONE',  ( 3.160870666675230714E-13, -30.00000000000000355, 3.000000000000000000 ) ) ;
#104 = AXIS2_PLACEMENT_3D ( 'NONE', #63, #239, #219 ) ;
#105 = CARTESIAN_POINT ( 'NONE',  ( 0.000000000000000000, 0.000000000000000000, 0.000000000000000000 ) ) ;
#106 = ORIENTED_EDGE ( 'NONE', *, *, #220, .T. ) ;
#107 = DIRECTION ( 'NONE',  ( 0.000000000000000000, 0.000000000000000000, -1.000000000000000000 ) ) ;
#108 = AXIS2_PLACEMENT_3D ( 'NONE', #119, #30, #68 ) ;
#109 = CARTESIAN_POINT ( 'NONE',  ( 0.000000000000000000, 0.000000000000000000, 0.000000000000000000 ) ) ;
#110 = ORIENTED_EDGE ( 'NONE', *, *, #151, .T. ) ;
#111 = DIRECTION ( 'NONE',  ( 0.000000000000000000, 0.000000000000000000, 1.000000000000000000 ) ) ;
#112 = DIRECTION ( 'NONE',  ( -1.047444401652940007E-14, 1.000000000000000000, 0.000000000000000000 ) ) ;
#113 = ORIENTED_EDGE ( 'NONE', *, *, #89, .T. ) ;
#114 = CIRCLE ( 'NONE', #46, 6.000000000000000000 ) ;
#115 = LINE ( 'NONE', #198, #13 ) ;
#116 = ORIENTED_EDGE ( 'NONE', *, *, #229, .T. ) ;
#117 = PLANE ( 'NONE',  #108 ) ;
#118 = EDGE_CURVE ( 'NONE', #133, #4, #48, .T. ) ;
#119 = CARTESIAN_POINT ( 'NONE',  ( 0.000000000000000000, 0.000000000000000000, 0.000000000000000000 ) ) ;
#120 = PRESENTATION_LAYER_ASSIGNMENT (  '', '', ( #172 ) ) ;
#121 = FACE_BOUND ( 'NONE', #21, .T. ) ;
#122 = DIRECTION ( 'NONE',  ( 0.000000000000000000, 0.000000000000000000, 1.000000000000000000 ) ) ;
#123 = DIRECTION ( 'NONE',  ( 7.406550393246796425E-15, -0.7071067811865475727, -0.7071067811865474617 ) ) ;
#124 = ADVANCED_FACE ( 'CYL_0', ( #17 ), #102, .T. ) ;
#125 = ORIENTED_EDGE ( 'NONE', *, *, #187, .T. ) ;
#126 = EDGE_CURVE ( 'NONE', #232, #96, #212, .T. ) ;
#127 = ORIENTED_EDGE ( 'NONE', *, *, #118, .F. ) ;
#128 = ORIENTED_EDGE ( 'NONE', *, *, #130, .F. ) ;
#129 =( NAMED_UNIT ( * ) SI_UNIT ( $, .STERADIAN. ) SOLID_ANGLE_UNIT ( ) );
#130 = EDGE_CURVE ( 'NONE', #213, #211, #40, .T. ) ;
#131 = CIRCLE ( 'NONE', #189, 2.458499999999999908 ) ;
#132 = ORIENTED_EDGE ( 'NONE', *, *, #151, .F. ) ;
#133 = VERTEX_POINT ( 'NONE', #142 ) ;
#134 = CYLINDRICAL_SURFACE ( 'NONE', #158, 2.458499999999999908 ) ;
#135 = AXIS2_PLACEMENT_3D ( 'NONE', #162, #28, #101 ) ;
#136 = ORIENTED_EDGE ( 'NONE', *, *, #187, .F. ) ;
#137 = DIRECTION ( 'NONE',  ( -1.047444401652940007E-14, 1.000000000000000000, 0.000000000000000000 ) ) ;
#138 = CYLINDRICAL_SURFACE ( 'NONE', #29, 2.458499999999999908 ) ;
#139 = CARTESIAN_POINT ( 'NONE',  ( 1.586030123798378776E-13, 1.661278374025531129E-27, 6.000000000000000000 ) ) ;
#140 = PRODUCT_DEFINITION_SHAPE ( 'NONE', 'NONE',  #10 ) ;
#141 = CARTESIAN_POINT ( 'NONE',  ( 3.087807787238716628E-13, -29.45850000000000080, 0.000000000000000000 ) ) ;
#142 = CARTESIAN_POINT ( 'NONE',  ( 1.560681360779329120E-13, -29.45850000000000080, -2.458499999999999908 ) ) ;
#143 = EDGE_CURVE ( 'NONE', #133, #213, #224, .T. ) ;
#144 = EDGE_LOOP ( 'NONE', ( #127, #231, #1, #113 ) ) ;
#145 = AXIS2_PLACEMENT_3D ( 'NONE', #50, #222, #100 ) ;
#146 =( NAMED_UNIT ( * ) PLANE_ANGLE_UNIT ( ) SI_UNIT ( $, .RADIAN. ) );
#147 = LINE ( 'NONE', #190, #33 ) ;
#148 = VECTOR ( 'NONE', #123, 1000.000000000000000 ) ;
#149 = EDGE_LOOP ( 'NONE', ( #236, #26, #54, #110 ) ) ;
#150 = FACE_OUTER_BOUND ( 'NONE', #217, .T. ) ;
#151 = EDGE_CURVE ( 'NONE', #196, #152, #5, .T. ) ;
#152 = VERTEX_POINT ( 'NONE', #205 ) ;
#153 = CIRCLE ( 'NONE', #201, 3.000000000000000000 ) ;
#154 = PLANE ( 'NONE',  #104 ) ;
#155 = ADVANCED_FACE ( 'CONE_0', ( #185 ), #238, .F. ) ;
#156 = DIRECTION ( 'NONE',  ( 0.000000000000000000, 0.000000000000000000, 1.000000000000000000 ) ) ;
#157 = FACE_BOUND ( 'NONE', #170, .T. ) ;
#158 = AXIS2_PLACEMENT_3D ( 'NONE', #27, #112, #111 ) ;
#159 = DIRECTION ( 'NONE',  ( -1.047444401652940007E-14, 1.000000000000000000, -0.000000000000000000 ) ) ;
#160 = DIRECTION ( 'NONE',  ( -6.394884621840900411E-14, -6.698286096363729880E-28, -1.000000000000000000 ) ) ;
#161 = DIRECTION ( 'NONE',  ( 0.000000000000000000, 0.000000000000000000, -1.000000000000000000 ) ) ;
#162 = CARTESIAN_POINT ( 'NONE',  ( 3.087807787238716628E-13, -29.45850000000000080, 0.000000000000000000 ) ) ;
#163 = VECTOR ( 'NONE', #83, 1000.000000000000000 ) ;
#164 = CARTESIAN_POINT ( 'NONE',  ( 3.157196726277788912E-13, -30.00000000000000355, 0.000000000000000000 ) ) ;
#165 =( LENGTH_UNIT ( ) NAMED_UNIT ( * ) SI_UNIT ( .MILLI., .METRE. ) );
#166 = PRODUCT ( '1.35.606300', '1.35.606300', '', ( #73 ) ) ;
#167 = DIRECTION ( 'NONE',  ( 1.047444401652940007E-14, -1.000000000000000000, 0.000000000000000000 ) ) ;
#168 = ORIENTED_EDGE ( 'NONE', *, *, #184, .T. ) ;
#169 = EDGE_LOOP ( 'NONE', ( #71, #106, #128, #194 ) ) ;
#170 = EDGE_LOOP ( 'NONE', ( #99, #237 ) ) ;
#171 = ORIENTED_EDGE ( 'NONE', *, *, #44, .T. ) ;
#172 = STYLED_ITEM ( 'NONE', ( #240 ), #38 ) ;
#173 = ADVANCED_FACE ( 'PLANAR_1', ( #221, #121 ), #117, .F. ) ;
#174 = ORIENTED_EDGE ( 'NONE', *, *, #15, .F. ) ;
#175 = EDGE_LOOP ( 'NONE', ( #57, #168, #47, #174 ) ) ;
#176 = SURFACE_STYLE_FILL_AREA ( #9 ) ;
#177 = ADVANCED_FACE ( 'CONE_0', ( #246 ), #59, .F. ) ;
#178 = CIRCLE ( 'NONE', #135, 2.458499999999999908 ) ;
#179 = AXIS2_PLACEMENT_3D ( 'NONE', #109, #195, #3 ) ;
#180 = SURFACE_STYLE_USAGE ( .BOTH. , #62 ) ;
#181 = CARTESIAN_POINT ( 'NONE',  ( 1.560681360779329120E-13, 1.634726954112400421E-27, -2.458499999999999908 ) ) ;
#182 = CARTESIAN_POINT ( 'NONE',  ( 1.586030123798378776E-13, -30.00000000000000355, 6.000000000000000000 ) ) ;
#183 = CARTESIAN_POINT ( 'NONE',  ( 3.157196726277788912E-13, -30.00000000000000355, 0.000000000000000000 ) ) ;
#184 = EDGE_CURVE ( 'NONE', #25, #133, #178, .T. ) ;
#185 = FACE_OUTER_BOUND ( 'NONE', #175, .T. ) ;
#186 = DIRECTION ( 'NONE',  ( 1.047444401652940007E-14, -1.000000000000000000, 0.000000000000000000 ) ) ;
#187 = EDGE_CURVE ( 'NONE', #152, #196, #245, .T. ) ;
#188 = LINE ( 'NONE', #103, #215 ) ;
#189 = AXIS2_PLACEMENT_3D ( 'NONE', #105, #191, #107 ) ;
#190 = CARTESIAN_POINT ( 'NONE',  ( 3.157196726277788912E-13, -30.00000000000000355, 2.458499999999999908 ) ) ;
#191 = DIRECTION ( 'NONE',  ( -1.047444401652940007E-14, 1.000000000000000000, -0.000000000000000000 ) ) ;
#192 = ORIENTED_EDGE ( 'NONE', *, *, #199, .F. ) ;
#193 = CARTESIAN_POINT ( 'NONE',  ( 1.593378004593263137E-13, -30.00000000000000355, -6.000000000000000000 ) ) ;
#194 = ORIENTED_EDGE ( 'NONE', *, *, #143, .F. ) ;
#195 = DIRECTION ( 'NONE',  ( 0.000000000000000000, 0.000000000000000000, 1.000000000000000000 ) ) ;
#196 = VERTEX_POINT ( 'NONE', #139 ) ;
#197 = CLOSED_SHELL ( 'NONE', ( #177, #23, #2, #49, #173, #124, #98, #155 ) ) ;
#198 = CARTESIAN_POINT ( 'NONE',  ( 3.164544607072673021E-13, -30.00000000000000355, -6.000000000000000000 ) ) ;
#199 = EDGE_CURVE ( 'NONE', #96, #196, #206, .T. ) ;
#200 = VERTEX_POINT ( 'NONE', #69 ) ;
#201 = AXIS2_PLACEMENT_3D ( 'NONE', #74, #203, #156 ) ;
#202 = DIRECTION ( 'NONE',  ( -1.047444401652940007E-14, 1.000000000000000000, -0.000000000000000000 ) ) ;
#203 = DIRECTION ( 'NONE',  ( -1.047444401652940007E-14, 1.000000000000000000, 0.000000000000000000 ) ) ;
#204 = CARTESIAN_POINT ( 'NONE',  ( 3.157196726277788912E-13, -30.00000000000000355, 0.000000000000000000 ) ) ;
#205 = CARTESIAN_POINT ( 'NONE',  ( 1.593378004593263137E-13, 1.668974870628145693E-27, -6.000000000000000000 ) ) ;
#206 = LINE ( 'NONE', #31, #163 ) ;
#207 = EDGE_CURVE ( 'NONE', #133, #25, #84, .T. ) ;
#208 = CARTESIAN_POINT ( 'NONE',  ( 3.160870666675230714E-13, -30.00000000000000355, 3.000000000000000000 ) ) ;
#209 = DIRECTION ( 'NONE',  ( 1.047444401652940007E-14, -1.000000000000000000, 0.000000000000000000 ) ) ;
#210 = ADVANCED_BREP_SHAPE_REPRESENTATION ( '1.35.606300', ( #38, #179 ), #37 ) ;
#211 = VERTEX_POINT ( 'NONE', #208 ) ;
#212 = CIRCLE ( 'NONE', #145, 6.000000000000000000 ) ;
#213 = VERTEX_POINT ( 'NONE', #32 ) ;
#214 = ORIENTED_EDGE ( 'NONE', *, *, #233, .F. ) ;
#215 = VECTOR ( 'NONE', #19, 1000.000000000000000 ) ;
#216 = DIRECTION ( 'NONE',  ( 0.000000000000000000, 0.000000000000000000, 1.000000000000000000 ) ) ;
#217 = EDGE_LOOP ( 'NONE', ( #35, #171, #125, #192 ) ) ;
#218 = APPLICATION_PROTOCOL_DEFINITION ( 'draft international standard', 'automotive_design', 1998, #92 ) ;
#219 = DIRECTION ( 'NONE',  ( 0.000000000000000000, 0.000000000000000000, -1.000000000000000000 ) ) ;
#220 = EDGE_CURVE ( 'NONE', #25, #211, #188, .T. ) ;
#221 = FACE_OUTER_BOUND ( 'NONE', #58, .T. ) ;
#222 = DIRECTION ( 'NONE',  ( 1.047444401652940007E-14, -1.000000000000000000, 0.000000000000000000 ) ) ;
#223 = EDGE_CURVE ( 'NONE', #96, #232, #114, .T. ) ;
#224 = LINE ( 'NONE', #66, #148 ) ;
#225 = DIRECTION ( 'NONE',  ( -1.047444401652940007E-14, 1.000000000000000000, 0.000000000000000000 ) ) ;
#226 = DIRECTION ( 'NONE',  ( -1.047444401652940007E-14, 1.000000000000000000, 0.000000000000000000 ) ) ;
#227 = MECHANICAL_DESIGN_GEOMETRIC_PRESENTATION_REPRESENTATION (  '', ( #172 ), #228 ) ;
#228 =( GEOMETRIC_REPRESENTATION_CONTEXT ( 3 ) GLOBAL_UNCERTAINTY_ASSIGNED_CONTEXT ( ( #93 ) ) GLOBAL_UNIT_ASSIGNED_CONTEXT ( ( #24, #61, #129 ) ) REPRESENTATION_CONTEXT ( 'NONE', 'WORKASPACE' ) );
#229 = EDGE_CURVE ( 'NONE', #4, #200, #131, .T. ) ;
#230 =( NAMED_UNIT ( * ) SI_UNIT ( $, .STERADIAN. ) SOLID_ANGLE_UNIT ( ) );
#231 = ORIENTED_EDGE ( 'NONE', *, *, #184, .F. ) ;
#232 = VERTEX_POINT ( 'NONE', #193 ) ;
#233 = EDGE_CURVE ( 'NONE', #25, #200, #147, .T. ) ;
#234 = AXIS2_PLACEMENT_3D ( 'NONE', #141, #225, #52 ) ;
#235 = PRODUCT_DEFINITION_FORMATION_WITH_SPECIFIED_SOURCE ( 'ANY', '', #166, .NOT_KNOWN. ) ;
#236 = ORIENTED_EDGE ( 'NONE', *, *, #44, .F. ) ;
#237 = ORIENTED_EDGE ( 'NONE', *, *, #15, .T. ) ;
#238 = CONICAL_SURFACE ( 'NONE', #8, 3.000000000000000000, 0.7853981633974482790 ) ;
#239 = DIRECTION ( 'NONE',  ( 1.047444401652940007E-14, -1.000000000000000000, 0.000000000000000000 ) ) ;
#240 = PRESENTATION_STYLE_ASSIGNMENT (( #180 ) ) ;
#241 = AXIS2_PLACEMENT_3D ( 'NONE', #70, #209, #34 ) ;
#242 = DIRECTION ( 'NONE',  ( 0.000000000000000000, 0.000000000000000000, 1.000000000000000000 ) ) ;
#243 = CARTESIAN_POINT ( 'NONE',  ( 3.160207520433492485E-13, -30.00000000000000355, -2.458499999999999908 ) ) ;
#244 = CARTESIAN_POINT ( 'NONE',  ( 3.157196726277788912E-13, -30.00000000000000355, 0.000000000000000000 ) ) ;
#245 = CIRCLE ( 'NONE', #248, 6.000000000000000000 ) ;
#246 = FACE_OUTER_BOUND ( 'NONE', #169, .T. ) ;
#247 = DIRECTION ( 'NONE',  ( -1.047444401652940007E-14, 1.000000000000000000, -0.000000000000000000 ) ) ;
#248 = AXIS2_PLACEMENT_3D ( 'NONE', #16, #82, #161 ) ;
#249 = DIRECTION ( 'NONE',  ( -1.047444401652940007E-14, 1.000000000000000000, 0.000000000000000000 ) ) ;
ENDSEC;
END-ISO-10303-21;
