ISO-10303-21;
HEADER;
FILE_DESCRIPTION (( 'STEP AP214' ),
    '1' );
FILE_NAME ('1.35.1141030.STEP',
    '2024-10-11T20:21:41',
    ( '' ),
    ( '' ),
    'SwSTEP 2.0',
    'SolidWorks 2024',
    '' );
FILE_SCHEMA (( 'AUTOMOTIVE_DESIGN' ));
ENDSEC;

DATA;
#1 = CARTESIAN_POINT ( 'NONE',  ( -3.513324850545087382E-16, 0.000000000000000000, 0.000000000000000000 ) ) ;
#2 = FACE_OUTER_BOUND ( 'NONE', #357, .T. ) ;
#3 = EDGE_LOOP ( 'NONE', ( #185, #267, #109, #159 ) ) ;
#4 = CARTESIAN_POINT ( 'NONE',  ( 2.507790391312689396E-15, -0.8120000000000071605, 0.000000000000000000 ) ) ;
#5 = ORIENTED_EDGE ( 'NONE', *, *, #275, .F. ) ;
#6 = ORIENTED_EDGE ( 'NONE', *, *, #360, .T. ) ;
#7 = CARTESIAN_POINT ( 'NONE',  ( 4.187999999999998835, 1.474631355446517651E-14, 0.000000000000000000 ) ) ;
#8 = CARTESIAN_POINT ( 'NONE',  ( 1.009609119998133677E-13, -28.77299999999999969, 0.000000000000000000 ) ) ;
#9 = VERTEX_POINT ( 'NONE', #71 ) ;
#10 = CARTESIAN_POINT ( 'NONE',  ( -3.513324850545087382E-16, 0.000000000000000000, 0.000000000000000000 ) ) ;
#11 = DIRECTION ( 'NONE',  ( 3.521087286166470758E-15, -1.000000000000000000, 0.000000000000000000 ) ) ;
#12 = DIRECTION ( 'NONE',  ( 0.000000000000000000, 0.000000000000000000, 1.000000000000000000 ) ) ;
#13 = AXIS2_PLACEMENT_3D ( 'NONE', #24, #274, #244 ) ;
#14 = CARTESIAN_POINT ( 'NONE',  ( -6.999999999999995559, -2.464761100316528111E-14, 8.572527594031467273E-16 ) ) ;
#15 = DIRECTION ( 'NONE',  ( 3.521087286166470758E-15, -1.000000000000000000, 0.000000000000000000 ) ) ;
#16 = ORIENTED_EDGE ( 'NONE', *, *, #275, .T. ) ;
#17 = ORIENTED_EDGE ( 'NONE', *, *, #306, .T. ) ;
#18 = UNCERTAINTY_MEASURE_WITH_UNIT (LENGTH_MEASURE( 1.000000000000000082E-05 ), #295, 'distance_accuracy_value', 'NONE');
#19 = ADVANCED_BREP_SHAPE_REPRESENTATION ( '1.35.1141030', ( #216, #363 ), #396 ) ;
#20 = CARTESIAN_POINT ( 'NONE',  ( -4.999999999999902300, -30.00000000000001776, 6.123233995736774171E-16 ) ) ;
#21 = AXIS2_PLACEMENT_3D ( 'NONE', #290, #120, #182 ) ;
#22 = EDGE_CURVE ( 'NONE', #392, #253, #196, .T. ) ;
#23 = EDGE_LOOP ( 'NONE', ( #366, #248, #42, #378 ) ) ;
#24 = CARTESIAN_POINT ( 'NONE',  ( -5.772999999999894882, -30.00000000000002132, 0.000000000000000000 ) ) ;
#25 = FACE_OUTER_BOUND ( 'NONE', #23, .T. ) ;
#26 = ORIENTED_EDGE ( 'NONE', *, *, #85, .T. ) ;
#27 = AXIS2_PLACEMENT_3D ( 'NONE', #136, #162, #383 ) ;
#28 = CYLINDRICAL_SURFACE ( 'NONE', #352, 6.999999999999995559 ) ;
#29 = VECTOR ( 'NONE', #178, 1000.000000000000000 ) ;
#30 = DIRECTION ( 'NONE',  ( 3.521087286166470758E-15, -1.000000000000000000, 0.000000000000000000 ) ) ;
#31 = ORIENTED_EDGE ( 'NONE', *, *, #117, .T. ) ;
#32 = CARTESIAN_POINT ( 'NONE',  ( -3.513324850545087382E-16, 0.000000000000000000, 0.000000000000000000 ) ) ;
#33 = ORIENTED_EDGE ( 'NONE', *, *, #22, .F. ) ;
#34 = EDGE_CURVE ( 'NONE', #212, #9, #293, .T. ) ;
#35 = DIRECTION ( 'NONE',  ( 3.521087286166470758E-15, -1.000000000000000000, 0.000000000000000000 ) ) ;
#36 = VERTEX_POINT ( 'NONE', #45 ) ;
#37 =( NAMED_UNIT ( * ) SI_UNIT ( $, .STERADIAN. ) SOLID_ANGLE_UNIT ( ) );
#38 = AXIS2_PLACEMENT_3D ( 'NONE', #139, #201, #200 ) ;
#39 = VECTOR ( 'NONE', #35, 1000.000000000000000 ) ;
#40 = DIRECTION ( 'NONE',  ( 0.7071067811865505703, -0.7071067811865444641, 0.000000000000000000 ) ) ;
#41 = DIRECTION ( 'NONE',  ( 3.521087286166470758E-15, -1.000000000000000000, 0.000000000000000000 ) ) ;
#42 = ORIENTED_EDGE ( 'NONE', *, *, #292, .T. ) ;
#43 = ADVANCED_FACE ( 'CONE_3', ( #133 ), #240, .T. ) ;
#44 = DIRECTION ( 'NONE',  ( 3.521087286166470758E-15, -1.000000000000000000, 0.000000000000000000 ) ) ;
#45 = CARTESIAN_POINT ( 'NONE',  ( -6.999999999999987566, -1.227000000000023627, 8.572527594031463329E-16 ) ) ;
#46 = COLOUR_RGB ( '',0.7921568627450980005, 0.8196078431372548767, 0.9333333333333333481 ) ;
#47 = DIRECTION ( 'NONE',  ( 3.521087286166470758E-15, -1.000000000000000000, 0.000000000000000000 ) ) ;
#48 = DIRECTION ( 'NONE',  ( -3.521087286166470758E-15, 1.000000000000000000, 0.000000000000000000 ) ) ;
#49 = CIRCLE ( 'NONE', #27, 5.772999999999991694 ) ;
#50 = CARTESIAN_POINT ( 'NONE',  ( -4.999999999999902300, -30.00000000000001776, 6.123233995736774171E-16 ) ) ;
#51 = EDGE_CURVE ( 'NONE', #311, #36, #166, .T. ) ;
#52 = EDGE_LOOP ( 'NONE', ( #337, #26, #31, #258 ) ) ;
#53 = ORIENTED_EDGE ( 'NONE', *, *, #145, .F. ) ;
#54 = CONICAL_SURFACE ( 'NONE', #273, 4.187999999999998835, 0.7853981633974482790 ) ;
#55 = EDGE_CURVE ( 'NONE', #36, #307, #294, .T. ) ;
#56 = DIRECTION ( 'NONE',  ( -3.521087286166470758E-15, 1.000000000000000000, 0.000000000000000000 ) ) ;
#57 = CARTESIAN_POINT ( 'NONE',  ( 1.024221632235724095E-13, -29.18799999999999173, 0.000000000000000000 ) ) ;
#58 = VERTEX_POINT ( 'NONE', #232 ) ;
#59 = CIRCLE ( 'NONE', #251, 5.000000000000006217 ) ;
#60 = FACE_OUTER_BOUND ( 'NONE', #225, .T. ) ;
#61 = EDGE_LOOP ( 'NONE', ( #220, #210, #397, #204 ) ) ;
#62 = DIRECTION ( 'NONE',  ( 3.521087286166470758E-15, -1.000000000000000000, 0.000000000000000000 ) ) ;
#63 = ORIENTED_EDGE ( 'NONE', *, *, #117, .F. ) ;
#64 = DIRECTION ( 'NONE',  ( 3.521087286166470758E-15, -1.000000000000000000, 0.000000000000000000 ) ) ;
#65 = DIRECTION ( 'NONE',  ( 1.000000000000000000, 3.469446951953614189E-15, 0.000000000000000000 ) ) ;
#66 = ORIENTED_EDGE ( 'NONE', *, *, #313, .T. ) ;
#67 = CARTESIAN_POINT ( 'NONE',  ( 3.969041615071748483E-15, -1.226999999999998980, 0.000000000000000000 ) ) ;
#68 = AXIS2_PLACEMENT_3D ( 'NONE', #57, #155, #158 ) ;
#69 = DIRECTION ( 'NONE',  ( 1.000000000000000000, 3.469446951953609456E-15, 0.000000000000000000 ) ) ;
#70 = CARTESIAN_POINT ( 'NONE',  ( 1.052812860999396167E-13, -30.00000000000000000, 0.000000000000000000 ) ) ;
#71 = CARTESIAN_POINT ( 'NONE',  ( 5.773000000000104492, -29.99999999999997868, 7.821206782754571257E-16 ) ) ;
#72 = CARTESIAN_POINT ( 'NONE',  ( 7.000000000000100364, -28.77299999999997482, 8.572527594031473190E-16 ) ) ;
#73 = AXIS2_PLACEMENT_3D ( 'NONE', #32, #62, #153 ) ;
#74 = AXIS2_PLACEMENT_3D ( 'NONE', #282, #217, #247 ) ;
#75 = ORIENTED_EDGE ( 'NONE', *, *, #171, .T. ) ;
#76 = CARTESIAN_POINT ( 'NONE',  ( 5.772999999999991694, 2.032723690303900687E-14, 0.000000000000000000 ) ) ;
#77 = VECTOR ( 'NONE', #160, 1000.000000000000000 ) ;
#78 = LINE ( 'NONE', #356, #147 ) ;
#79 = ADVANCED_FACE ( 'CONE_0', ( #349 ), #277, .F. ) ;
#80 = LINE ( 'NONE', #213, #29 ) ;
#81 = AXIS2_PLACEMENT_3D ( 'NONE', #325, #227, #165 ) ;
#82 = CIRCLE ( 'NONE', #141, 5.772999999999991694 ) ;
#83 = APPLICATION_CONTEXT ( 'automotive_design' ) ;
#84 = DIRECTION ( 'NONE',  ( 1.000000000000000000, 3.605868995621286084E-15, 0.000000000000000000 ) ) ;
#85 = EDGE_CURVE ( 'NONE', #224, #231, #49, .T. ) ;
#86 = CARTESIAN_POINT ( 'NONE',  ( -3.513324850545087382E-16, 0.000000000000000000, 0.000000000000000000 ) ) ;
#87 = ORIENTED_EDGE ( 'NONE', *, *, #34, .T. ) ;
#88 = DIRECTION ( 'NONE',  ( 3.521087286166470758E-15, -1.000000000000000000, 0.000000000000000000 ) ) ;
#89 = ORIENTED_EDGE ( 'NONE', *, *, #138, .F. ) ;
#90 = LINE ( 'NONE', #93, #77 ) ;
#91 = AXIS2_PLACEMENT_3D ( 'NONE', #164, #15, #324 ) ;
#92 = ORIENTED_EDGE ( 'NONE', *, *, #171, .F. ) ;
#93 = CARTESIAN_POINT ( 'NONE',  ( 6.999999999999995559, 2.464761100316528111E-14, 0.000000000000000000 ) ) ;
#94 = DIRECTION ( 'NONE',  ( 3.521087286166470758E-15, -1.000000000000000000, 0.000000000000000000 ) ) ;
#95 = DIRECTION ( 'NONE',  ( 3.521087286166470758E-15, -1.000000000000000000, 0.000000000000000000 ) ) ;
#96 = ORIENTED_EDGE ( 'NONE', *, *, #51, .F. ) ;
#97 = DIRECTION ( 'NONE',  ( 3.521087286166470758E-15, -1.000000000000000000, 0.000000000000000000 ) ) ;
#98 = CARTESIAN_POINT ( 'NONE',  ( -3.513324850545087382E-16, 0.000000000000000000, 0.000000000000000000 ) ) ;
#99 = AXIS2_PLACEMENT_3D ( 'NONE', #70, #168, #322 ) ;
#100 = CIRCLE ( 'NONE', #183, 7.000000000000000000 ) ;
#101 = CONICAL_SURFACE ( 'NONE', #74, 7.000000000000000000, 0.7853981633974490562 ) ;
#102 = LINE ( 'NONE', #161, #214 ) ;
#103 = EDGE_CURVE ( 'NONE', #195, #58, #265, .T. ) ;
#104 = ORIENTED_EDGE ( 'NONE', *, *, #331, .T. ) ;
#105 = EDGE_CURVE ( 'NONE', #9, #236, #263, .T. ) ;
#106 =( NAMED_UNIT ( * ) SI_UNIT ( $, .STERADIAN. ) SOLID_ANGLE_UNIT ( ) );
#107 = CARTESIAN_POINT ( 'NONE',  ( 1.052812860999396167E-13, -30.00000000000000000, 0.000000000000000000 ) ) ;
#108 = CARTESIAN_POINT ( 'NONE',  ( 1.009609119998133677E-13, -28.77299999999999969, 0.000000000000000000 ) ) ;
#109 = ORIENTED_EDGE ( 'NONE', *, *, #144, .F. ) ;
#110 = CONICAL_SURFACE ( 'NONE', #172, 5.772999999999991694, 0.7853981633974490562 ) ;
#111 = LINE ( 'NONE', #302, #381 ) ;
#112 = CIRCLE ( 'NONE', #177, 5.772999999999999687 ) ;
#113 = DIRECTION ( 'NONE',  ( -0.7071067811865499042, 0.7071067811865451302, 0.000000000000000000 ) ) ;
#114 = EDGE_CURVE ( 'NONE', #375, #223, #398, .T. ) ;
#115 = DIRECTION ( 'NONE',  ( 3.521087286166470758E-15, -1.000000000000000000, 0.000000000000000000 ) ) ;
#116 = DIRECTION ( 'NONE',  ( 3.521087286166470758E-15, -1.000000000000000000, 0.000000000000000000 ) ) ;
#117 = EDGE_CURVE ( 'NONE', #231, #311, #102, .T. ) ;
#118 = STYLED_ITEM ( 'NONE', ( #128 ), #216 ) ;
#119 = ORIENTED_EDGE ( 'NONE', *, *, #174, .T. ) ;
#120 = DIRECTION ( 'NONE',  ( 3.521087286166470758E-15, -1.000000000000000000, 0.000000000000000000 ) ) ;
#121 = ORIENTED_EDGE ( 'NONE', *, *, #22, .T. ) ;
#122 = ORIENTED_EDGE ( 'NONE', *, *, #144, .T. ) ;
#123 = CIRCLE ( 'NONE', #264, 6.999999999999992006 ) ;
#124 = DIRECTION ( 'NONE',  ( -3.521087286166470758E-15, 1.000000000000000000, 0.000000000000000000 ) ) ;
#125 = SURFACE_STYLE_FILL_AREA ( #386 ) ;
#126 = VERTEX_POINT ( 'NONE', #316 ) ;
#127 = DIRECTION ( 'NONE',  ( 3.521087286166470758E-15, -1.000000000000000000, 0.000000000000000000 ) ) ;
#128 = PRESENTATION_STYLE_ASSIGNMENT (( #374 ) ) ;
#129 = ORIENTED_EDGE ( 'NONE', *, *, #114, .T. ) ;
#130 = DIRECTION ( 'NONE',  ( 1.000000000000000000, 3.469446951953609456E-15, 0.000000000000000000 ) ) ;
#131 = EDGE_CURVE ( 'NONE', #253, #195, #229, .T. ) ;
#132 = CARTESIAN_POINT ( 'NONE',  ( -3.513324850545087382E-16, 0.000000000000000000, 0.000000000000000000 ) ) ;
#133 = FACE_OUTER_BOUND ( 'NONE', #369, .T. ) ;
#134 = PRODUCT_CONTEXT ( 'NONE', #83, 'mechanical' ) ;
#135 = AXIS2_PLACEMENT_3D ( 'NONE', #339, #127, #65 ) ;
#136 = CARTESIAN_POINT ( 'NONE',  ( -3.513324850545087382E-16, 0.000000000000000000, 0.000000000000000000 ) ) ;
#137 = DIRECTION ( 'NONE',  ( 1.000000000000000000, 3.469446951953614189E-15, 0.000000000000000000 ) ) ;
#138 = EDGE_CURVE ( 'NONE', #126, #195, #308, .T. ) ;
#139 = CARTESIAN_POINT ( 'NONE',  ( 2.507790391312689396E-15, -0.8120000000000071605, 0.000000000000000000 ) ) ;
#140 = ORIENTED_EDGE ( 'NONE', *, *, #114, .F. ) ;
#141 = AXIS2_PLACEMENT_3D ( 'NONE', #327, #47, #230 ) ;
#142 = ORIENTED_EDGE ( 'NONE', *, *, #218, .T. ) ;
#143 = CIRCLE ( 'NONE', #167, 4.187999999999998835 ) ;
#144 = EDGE_CURVE ( 'NONE', #236, #307, #305, .T. ) ;
#145 = EDGE_CURVE ( 'NONE', #280, #58, #355, .T. ) ;
#146 = SHAPE_DEFINITION_REPRESENTATION ( #237, #19 ) ;
#147 = VECTOR ( 'NONE', #175, 1000.000000000000114 ) ;
#148 = DIRECTION ( 'NONE',  ( 1.000000000000000000, 3.521087286166471152E-15, 0.000000000000000000 ) ) ;
#149 = FACE_OUTER_BOUND ( 'NONE', #190, .T. ) ;
#150 = ORIENTED_EDGE ( 'NONE', *, *, #331, .F. ) ;
#151 = DIRECTION ( 'NONE',  ( 1.000000000000000000, 3.531401361809932785E-15, 0.000000000000000000 ) ) ;
#152 = ADVANCED_FACE ( 'CYL_1', ( #60 ), #198, .T. ) ;
#153 = DIRECTION ( 'NONE',  ( 1.000000000000000000, 3.521087286166470363E-15, 0.000000000000000000 ) ) ;
#154 = ORIENTED_EDGE ( 'NONE', *, *, #379, .F. ) ;
#155 = DIRECTION ( 'NONE',  ( 3.521087286166470758E-15, -1.000000000000000000, 0.000000000000000000 ) ) ;
#156 = EDGE_LOOP ( 'NONE', ( #87, #169 ) ) ;
#157 = VECTOR ( 'NONE', #194, 1000.000000000000114 ) ;
#158 = DIRECTION ( 'NONE',  ( 1.000000000000000000, 3.313702914950921072E-15, 0.000000000000000000 ) ) ;
#159 = ORIENTED_EDGE ( 'NONE', *, *, #313, .F. ) ;
#160 = DIRECTION ( 'NONE',  ( 3.521087286166470758E-15, -1.000000000000000000, 0.000000000000000000 ) ) ;
#161 = CARTESIAN_POINT ( 'NONE',  ( 5.772999999999991694, 2.032723690303900687E-14, 0.000000000000000000 ) ) ;
#162 = DIRECTION ( 'NONE',  ( 3.521087286166470758E-15, -1.000000000000000000, 0.000000000000000000 ) ) ;
#163 = APPLICATION_PROTOCOL_DEFINITION ( 'draft international standard', 'automotive_design', 1998, #83 ) ;
#164 = CARTESIAN_POINT ( 'NONE',  ( 1.052812860999396167E-13, -30.00000000000000000, 0.000000000000000000 ) ) ;
#165 = DIRECTION ( 'NONE',  ( 1.000000000000000000, 3.531401361809932785E-15, 0.000000000000000000 ) ) ;
#166 = CIRCLE ( 'NONE', #81, 6.999999999999992006 ) ;
#167 = AXIS2_PLACEMENT_3D ( 'NONE', #173, #115, #209 ) ;
#168 = DIRECTION ( 'NONE',  ( 3.521087286166470758E-15, -1.000000000000000000, 0.000000000000000000 ) ) ;
#169 = ORIENTED_EDGE ( 'NONE', *, *, #379, .T. ) ;
#170 = ADVANCED_FACE ( 'CONE_1', ( #314 ), #347, .F. ) ;
#171 = EDGE_CURVE ( 'NONE', #212, #307, #249, .T. ) ;
#172 = AXIS2_PLACEMENT_3D ( 'NONE', #246, #221, #226 ) ;
#173 = CARTESIAN_POINT ( 'NONE',  ( 2.507790391312689396E-15, -0.8120000000000071605, 0.000000000000000000 ) ) ;
#174 = EDGE_CURVE ( 'NONE', #253, #223, #321, .T. ) ;
#175 = DIRECTION ( 'NONE',  ( -0.7071067811865456854, -0.7071067811865493491, 8.659560562354939021E-17 ) ) ;
#176 = EDGE_LOOP ( 'NONE', ( #297, #245 ) ) ;
#177 = AXIS2_PLACEMENT_3D ( 'NONE', #257, #95, #84 ) ;
#178 = DIRECTION ( 'NONE',  ( 3.521087286166470758E-15, -1.000000000000000000, 0.000000000000000000 ) ) ;
#179 = DIRECTION ( 'NONE',  ( 1.000000000000000000, 3.521087286166470363E-15, 0.000000000000000000 ) ) ;
#180 = ADVANCED_FACE ( 'CONE_2', ( #318 ), #288, .T. ) ;
#181 = ORIENTED_EDGE ( 'NONE', *, *, #105, .F. ) ;
#182 = DIRECTION ( 'NONE',  ( 1.000000000000000000, 3.313702914950921072E-15, 0.000000000000000000 ) ) ;
#183 = AXIS2_PLACEMENT_3D ( 'NONE', #8, #44, #137 ) ;
#184 = FACE_OUTER_BOUND ( 'NONE', #61, .T. ) ;
#185 = ORIENTED_EDGE ( 'NONE', *, *, #51, .T. ) ;
#186 = EDGE_CURVE ( 'NONE', #195, #126, #235, .T. ) ;
#187 = CYLINDRICAL_SURFACE ( 'NONE', #272, 4.187999999999998835 ) ;
#188 =( LENGTH_UNIT ( ) NAMED_UNIT ( * ) SI_UNIT ( .MILLI., .METRE. ) );
#189 = ORIENTED_EDGE ( 'NONE', *, *, #218, .F. ) ;
#190 = EDGE_LOOP ( 'NONE', ( #154, #317, #122, #92 ) ) ;
#191 = CARTESIAN_POINT ( 'NONE',  ( -6.999999999999900524, -28.77300000000002456, 8.572527594031471218E-16 ) ) ;
#192 = CARTESIAN_POINT ( 'NONE',  ( 0.000000000000000000, 0.000000000000000000, 0.000000000000000000 ) ) ;
#193 = ADVANCED_FACE ( 'CYL_0', ( #380 ), #187, .F. ) ;
#194 = DIRECTION ( 'NONE',  ( -0.7071067811865505703, 0.7071067811865444641, 0.000000000000000000 ) ) ;
#195 = VERTEX_POINT ( 'NONE', #281 ) ;
#196 = CIRCLE ( 'NONE', #38, 4.187999999999998835 ) ;
#197 = MECHANICAL_DESIGN_GEOMETRIC_PRESENTATION_REPRESENTATION (  '', ( #118 ), #326 ) ;
#198 = CYLINDRICAL_SURFACE ( 'NONE', #208, 6.999999999999995559 ) ;
#199 = SURFACE_SIDE_STYLE ('',( #125 ) ) ;
#200 = DIRECTION ( 'NONE',  ( 1.000000000000000000, 3.520809347135354403E-15, 0.000000000000000000 ) ) ;
#201 = DIRECTION ( 'NONE',  ( 3.521087286166470758E-15, -1.000000000000000000, 0.000000000000000000 ) ) ;
#202 = ADVANCED_FACE ( 'CONE_2', ( #2 ), #110, .T. ) ;
#203 = FACE_OUTER_BOUND ( 'NONE', #342, .T. ) ;
#204 = ORIENTED_EDGE ( 'NONE', *, *, #186, .T. ) ;
#205 = AXIS2_PLACEMENT_3D ( 'NONE', #86, #310, #368 ) ;
#206 = UNCERTAINTY_MEASURE_WITH_UNIT (LENGTH_MEASURE( 1.000000000000000082E-05 ), #188, 'distance_accuracy_value', 'NONE');
#207 = DIRECTION ( 'NONE',  ( 1.000000000000000000, 3.521087286166470758E-15, 0.000000000000000000 ) ) ;
#208 = AXIS2_PLACEMENT_3D ( 'NONE', #10, #88, #371 ) ;
#209 = DIRECTION ( 'NONE',  ( 1.000000000000000000, 3.520809347135354403E-15, 0.000000000000000000 ) ) ;
#210 = ORIENTED_EDGE ( 'NONE', *, *, #259, .F. ) ;
#211 = ADVANCED_FACE ( 'CONE_0', ( #203 ), #319, .F. ) ;
#212 = VERTEX_POINT ( 'NONE', #348 ) ;
#213 = CARTESIAN_POINT ( 'NONE',  ( -4.187999999999998835, -1.474631355446517651E-14, 5.128820794829114229E-16 ) ) ;
#214 = VECTOR ( 'NONE', #40, 1000.000000000000114 ) ;
#215 = EDGE_CURVE ( 'NONE', #231, #224, #82, .T. ) ;
#216 = MANIFOLD_SOLID_BREP ( 'Body-Move/Copy2', #271 ) ;
#217 = DIRECTION ( 'NONE',  ( -3.521087286166470758E-15, 1.000000000000000000, 0.000000000000000000 ) ) ;
#218 = EDGE_CURVE ( 'NONE', #307, #236, #100, .T. ) ;
#219 = CARTESIAN_POINT ( 'NONE',  ( 2.507790391312689396E-15, -0.8120000000000071605, 0.000000000000000000 ) ) ;
#220 = ORIENTED_EDGE ( 'NONE', *, *, #303, .F. ) ;
#221 = DIRECTION ( 'NONE',  ( 3.521087286166470758E-15, -1.000000000000000000, 0.000000000000000000 ) ) ;
#222 = CIRCLE ( 'NONE', #370, 5.000000000000007105 ) ;
#223 = VERTEX_POINT ( 'NONE', #268 ) ;
#224 = VERTEX_POINT ( 'NONE', #394 ) ;
#225 = EDGE_LOOP ( 'NONE', ( #388, #17, #66, #189 ) ) ;
#226 = DIRECTION ( 'NONE',  ( 1.000000000000000000, 3.521087286166470758E-15, 0.000000000000000000 ) ) ;
#227 = DIRECTION ( 'NONE',  ( 3.521087286166470758E-15, -1.000000000000000000, 0.000000000000000000 ) ) ;
#228 = AXIS2_PLACEMENT_3D ( 'NONE', #132, #345, #261 ) ;
#229 = LINE ( 'NONE', #7, #39 ) ;
#230 = DIRECTION ( 'NONE',  ( 1.000000000000000000, 3.521087286166470758E-15, 0.000000000000000000 ) ) ;
#231 = VERTEX_POINT ( 'NONE', #76 ) ;
#232 = CARTESIAN_POINT ( 'NONE',  ( 5.000000000000111910, -29.99999999999998224, 0.000000000000000000 ) ) ;
#233 = DIRECTION ( 'NONE',  ( 3.521087286166470758E-15, -1.000000000000000000, 0.000000000000000000 ) ) ;
#234 = PRODUCT_DEFINITION_CONTEXT ( 'detailed design', #312, 'design' ) ;
#235 = CIRCLE ( 'NONE', #21, 4.187999999999999723 ) ;
#236 = VERTEX_POINT ( 'NONE', #270 ) ;
#237 = PRODUCT_DEFINITION_SHAPE ( 'NONE', 'NONE',  #276 ) ;
#238 = ADVANCED_FACE ( 'PLANAR_1', ( #239, #354 ), #358, .F. ) ;
#239 = FACE_OUTER_BOUND ( 'NONE', #176, .T. ) ;
#240 = CONICAL_SURFACE ( 'NONE', #250, 7.000000000000000000, 0.7853981633974490562 ) ;
#241 = ORIENTED_EDGE ( 'NONE', *, *, #215, .T. ) ;
#242 = FACE_BOUND ( 'NONE', #289, .T. ) ;
#243 = ORIENTED_EDGE ( 'NONE', *, *, #303, .T. ) ;
#244 = DIRECTION ( 'NONE',  ( -1.000000000000000000, -3.521087286166470758E-15, 0.000000000000000000 ) ) ;
#245 = ORIENTED_EDGE ( 'NONE', *, *, #85, .F. ) ;
#246 = CARTESIAN_POINT ( 'NONE',  ( -3.513324850545087382E-16, 0.000000000000000000, 0.000000000000000000 ) ) ;
#247 = DIRECTION ( 'NONE',  ( -1.000000000000000000, -3.469446951953614189E-15, 0.000000000000000000 ) ) ;
#248 = ORIENTED_EDGE ( 'NONE', *, *, #259, .T. ) ;
#249 = LINE ( 'NONE', #255, #157 ) ;
#250 = AXIS2_PLACEMENT_3D ( 'NONE', #108, #48, #323 ) ;
#251 = AXIS2_PLACEMENT_3D ( 'NONE', #98, #116, #179 ) ;
#252 = CYLINDRICAL_SURFACE ( 'NONE', #205, 4.187999999999998835 ) ;
#253 = VERTEX_POINT ( 'NONE', #328 ) ;
#254 = PRODUCT_DEFINITION_FORMATION_WITH_SPECIFIED_SOURCE ( 'ANY', '', #353, .NOT_KNOWN. ) ;
#255 = CARTESIAN_POINT ( 'NONE',  ( -6.999999999999899636, -28.77300000000002456, 0.000000000000000000 ) ) ;
#256 =( NAMED_UNIT ( * ) PLANE_ANGLE_UNIT ( ) SI_UNIT ( $, .RADIAN. ) );
#257 = CARTESIAN_POINT ( 'NONE',  ( 1.052812860999396167E-13, -30.00000000000000000, 0.000000000000000000 ) ) ;
#258 = ORIENTED_EDGE ( 'NONE', *, *, #306, .F. ) ;
#259 = EDGE_CURVE ( 'NONE', #253, #392, #143, .T. ) ;
#260 = ORIENTED_EDGE ( 'NONE', *, *, #34, .F. ) ;
#261 = DIRECTION ( 'NONE',  ( 1.000000000000000000, 3.521087286166470758E-15, 0.000000000000000000 ) ) ;
#262 = VECTOR ( 'NONE', #291, 1000.000000000000114 ) ;
#263 = LINE ( 'NONE', #72, #399 ) ;
#264 = AXIS2_PLACEMENT_3D ( 'NONE', #67, #41, #151 ) ;
#265 = LINE ( 'NONE', #387, #262 ) ;
#266 = ORIENTED_EDGE ( 'NONE', *, *, #186, .F. ) ;
#267 = ORIENTED_EDGE ( 'NONE', *, *, #55, .T. ) ;
#268 = CARTESIAN_POINT ( 'NONE',  ( 5.000000000000006217, 1.756407519426517183E-14, 6.123233995736773185E-16 ) ) ;
#269 = ORIENTED_EDGE ( 'NONE', *, *, #145, .T. ) ;
#270 = CARTESIAN_POINT ( 'NONE',  ( 7.000000000000100364, -28.77299999999997482, 0.000000000000000000 ) ) ;
#271 = CLOSED_SHELL ( 'NONE', ( #385, #359, #202, #170, #193, #211, #298, #79, #376, #393, #238, #180, #152, #43 ) ) ;
#272 = AXIS2_PLACEMENT_3D ( 'NONE', #309, #30, #148 ) ;
#273 = AXIS2_PLACEMENT_3D ( 'NONE', #219, #56, #279 ) ;
#274 = DIRECTION ( 'NONE',  ( -3.521087286166470758E-15, 1.000000000000000000, 0.000000000000000000 ) ) ;
#275 = EDGE_CURVE ( 'NONE', #126, #280, #390, .T. ) ;
#276 = PRODUCT_DEFINITION ( 'UNKNOWN', '', #254, #234 ) ;
#277 = CONICAL_SURFACE ( 'NONE', #99, 5.000000000000007105, 0.7853981633974482790 ) ;
#278 = PRESENTATION_LAYER_ASSIGNMENT (  '', '', ( #118 ) ) ;
#279 = DIRECTION ( 'NONE',  ( -1.000000000000000000, -3.520809347135354403E-15, 0.000000000000000000 ) ) ;
#280 = VERTEX_POINT ( 'NONE', #50 ) ;
#281 = CARTESIAN_POINT ( 'NONE',  ( 4.188000000000101863, -29.18799999999997752, 0.000000000000000000 ) ) ;
#282 = CARTESIAN_POINT ( 'NONE',  ( 1.009609119998133677E-13, -28.77299999999999969, 0.000000000000000000 ) ) ;
#283 = EDGE_LOOP ( 'NONE', ( #129, #6 ) ) ;
#284 = CARTESIAN_POINT ( 'NONE',  ( 6.999999999999996447, -1.226999999999974333, 0.000000000000000000 ) ) ;
#285 = DIRECTION ( 'NONE',  ( -1.000000000000000000, -3.520809347135354403E-15, 0.000000000000000000 ) ) ;
#286 = EDGE_CURVE ( 'NONE', #224, #36, #78, .T. ) ;
#287 = EDGE_LOOP ( 'NONE', ( #121, #119, #140, #315 ) ) ;
#288 = CONICAL_SURFACE ( 'NONE', #228, 5.772999999999991694, 0.7853981633974490562 ) ;
#289 = EDGE_LOOP ( 'NONE', ( #150, #53 ) ) ;
#290 = CARTESIAN_POINT ( 'NONE',  ( 1.024221632235724095E-13, -29.18799999999999173, 0.000000000000000000 ) ) ;
#291 = DIRECTION ( 'NONE',  ( 0.7071067811865499042, -0.7071067811865451302, 0.000000000000000000 ) ) ;
#292 = EDGE_CURVE ( 'NONE', #392, #375, #111, .T. ) ;
#293 = CIRCLE ( 'NONE', #338, 5.772999999999999687 ) ;
#294 = LINE ( 'NONE', #14, #361 ) ;
#295 =( LENGTH_UNIT ( ) NAMED_UNIT ( * ) SI_UNIT ( .MILLI., .METRE. ) );
#296 = DIRECTION ( 'NONE',  ( 1.000000000000000000, 3.605868995621286084E-15, 0.000000000000000000 ) ) ;
#297 = ORIENTED_EDGE ( 'NONE', *, *, #215, .F. ) ;
#298 = ADVANCED_FACE ( 'PLANAR_0', ( #242, #333 ), #304, .F. ) ;
#299 = DIRECTION ( 'NONE',  ( 1.000000000000000000, 3.521087286166471152E-15, 0.000000000000000000 ) ) ;
#300 = DIRECTION ( 'NONE',  ( 3.521087286166470758E-15, -1.000000000000000000, 0.000000000000000000 ) ) ;
#301 = CARTESIAN_POINT ( 'NONE',  ( -5.000000000000006217, -1.734723475976807094E-14, 0.000000000000000000 ) ) ;
#302 = CARTESIAN_POINT ( 'NONE',  ( -4.187999999999996170, -0.8120000000000219265, 0.000000000000000000 ) ) ;
#303 = EDGE_CURVE ( 'NONE', #392, #126, #80, .T. ) ;
#304 = PLANE ( 'NONE',  #13 ) ;
#305 = CIRCLE ( 'NONE', #135, 7.000000000000000000 ) ;
#306 = EDGE_CURVE ( 'NONE', #36, #311, #123, .T. ) ;
#307 = VERTEX_POINT ( 'NONE', #191 ) ;
#308 = CIRCLE ( 'NONE', #68, 4.187999999999999723 ) ;
#309 = CARTESIAN_POINT ( 'NONE',  ( -3.513324850545087382E-16, 0.000000000000000000, 0.000000000000000000 ) ) ;
#310 = DIRECTION ( 'NONE',  ( 3.521087286166470758E-15, -1.000000000000000000, 0.000000000000000000 ) ) ;
#311 = VERTEX_POINT ( 'NONE', #284 ) ;
#312 = APPLICATION_CONTEXT ( 'automotive_design' ) ;
#313 = EDGE_CURVE ( 'NONE', #311, #236, #90, .T. ) ;
#314 = FACE_OUTER_BOUND ( 'NONE', #287, .T. ) ;
#315 = ORIENTED_EDGE ( 'NONE', *, *, #292, .F. ) ;
#316 = CARTESIAN_POINT ( 'NONE',  ( -4.187999999999897582, -29.18800000000000594, 5.626027395282944200E-16 ) ) ;
#317 = ORIENTED_EDGE ( 'NONE', *, *, #105, .T. ) ;
#318 = FACE_OUTER_BOUND ( 'NONE', #52, .T. ) ;
#319 = CONICAL_SURFACE ( 'NONE', #91, 5.000000000000007105, 0.7853981633974482790 ) ;
#320 = EDGE_LOOP ( 'NONE', ( #33, #243, #372, #340 ) ) ;
#321 = LINE ( 'NONE', #367, #391 ) ;
#322 = DIRECTION ( 'NONE',  ( 1.000000000000000000, 3.469446951953609456E-15, 0.000000000000000000 ) ) ;
#323 = DIRECTION ( 'NONE',  ( -1.000000000000000000, -3.469446951953614189E-15, 0.000000000000000000 ) ) ;
#324 = DIRECTION ( 'NONE',  ( 1.000000000000000000, 3.469446951953609456E-15, 0.000000000000000000 ) ) ;
#325 = CARTESIAN_POINT ( 'NONE',  ( 3.969041615071748483E-15, -1.226999999999998980, 0.000000000000000000 ) ) ;
#326 =( GEOMETRIC_REPRESENTATION_CONTEXT ( 3 ) GLOBAL_UNCERTAINTY_ASSIGNED_CONTEXT ( ( #18 ) ) GLOBAL_UNIT_ASSIGNED_CONTEXT ( ( #295, #256, #106 ) ) REPRESENTATION_CONTEXT ( 'NONE', 'WORKASPACE' ) );
#327 = CARTESIAN_POINT ( 'NONE',  ( -3.513324850545087382E-16, 0.000000000000000000, 0.000000000000000000 ) ) ;
#328 = CARTESIAN_POINT ( 'NONE',  ( 4.188000000000001499, -0.8119999999999923945, 0.000000000000000000 ) ) ;
#329 = AXIS2_PLACEMENT_3D ( 'NONE', #301, #300, #207 ) ;
#330 = DIRECTION ( 'NONE',  ( -0.7071067811865450192, -0.7071067811865500152, 8.659560562354931626E-17 ) ) ;
#331 = EDGE_CURVE ( 'NONE', #58, #280, #222, .T. ) ;
#332 =( NAMED_UNIT ( * ) PLANE_ANGLE_UNIT ( ) SI_UNIT ( $, .RADIAN. ) );
#333 = FACE_OUTER_BOUND ( 'NONE', #156, .T. ) ;
#334 = ORIENTED_EDGE ( 'NONE', *, *, #103, .T. ) ;
#335 = AXIS2_PLACEMENT_3D ( 'NONE', #377, #94, #69 ) ;
#336 = CARTESIAN_POINT ( 'NONE',  ( -4.187999999999996170, -0.8120000000000219265, 5.128820794829174379E-16 ) ) ;
#337 = ORIENTED_EDGE ( 'NONE', *, *, #286, .F. ) ;
#338 = AXIS2_PLACEMENT_3D ( 'NONE', #107, #11, #296 ) ;
#339 = CARTESIAN_POINT ( 'NONE',  ( 1.009609119998133677E-13, -28.77299999999999969, 0.000000000000000000 ) ) ;
#340 = ORIENTED_EDGE ( 'NONE', *, *, #131, .F. ) ;
#341 = DIRECTION ( 'NONE',  ( 0.7071067811865456854, 0.7071067811865493491, 8.659560562354939021E-17 ) ) ;
#342 = EDGE_LOOP ( 'NONE', ( #89, #16, #269, #350 ) ) ;
#343 = CARTESIAN_POINT ( 'NONE',  ( 1.052812860999396167E-13, -30.00000000000000000, 0.000000000000000000 ) ) ;
#344 = APPLICATION_PROTOCOL_DEFINITION ( 'draft international standard', 'automotive_design', 1998, #312 ) ;
#345 = DIRECTION ( 'NONE',  ( 3.521087286166470758E-15, -1.000000000000000000, 0.000000000000000000 ) ) ;
#346 = ORIENTED_EDGE ( 'NONE', *, *, #286, .T. ) ;
#347 = CONICAL_SURFACE ( 'NONE', #362, 4.187999999999998835, 0.7853981633974482790 ) ;
#348 = CARTESIAN_POINT ( 'NONE',  ( -5.772999999999894882, -30.00000000000002132, 0.000000000000000000 ) ) ;
#349 = FACE_OUTER_BOUND ( 'NONE', #351, .T. ) ;
#350 = ORIENTED_EDGE ( 'NONE', *, *, #103, .F. ) ;
#351 = EDGE_LOOP ( 'NONE', ( #5, #266, #334, #104 ) ) ;
#352 = AXIS2_PLACEMENT_3D ( 'NONE', #1, #233, #299 ) ;
#353 = PRODUCT ( '1.35.1141030', '1.35.1141030', '', ( #134 ) ) ;
#354 = FACE_BOUND ( 'NONE', #283, .T. ) ;
#355 = CIRCLE ( 'NONE', #335, 5.000000000000007105 ) ;
#356 = CARTESIAN_POINT ( 'NONE',  ( -5.772999999999991694, -2.032723690303900687E-14, 7.069885971477659464E-16 ) ) ;
#357 = EDGE_LOOP ( 'NONE', ( #241, #346, #96, #63 ) ) ;
#358 = PLANE ( 'NONE',  #329 ) ;
#359 = ADVANCED_FACE ( 'CYL_1', ( #364 ), #28, .T. ) ;
#360 = EDGE_CURVE ( 'NONE', #223, #375, #59, .T. ) ;
#361 = VECTOR ( 'NONE', #97, 1000.000000000000000 ) ;
#362 = AXIS2_PLACEMENT_3D ( 'NONE', #4, #124, #285 ) ;
#363 = AXIS2_PLACEMENT_3D ( 'NONE', #192, #12, #384 ) ;
#364 = FACE_OUTER_BOUND ( 'NONE', #3, .T. ) ;
#365 = CARTESIAN_POINT ( 'NONE',  ( -5.000000000000006217, -1.756407519426517183E-14, 0.000000000000000000 ) ) ;
#366 = ORIENTED_EDGE ( 'NONE', *, *, #174, .F. ) ;
#367 = CARTESIAN_POINT ( 'NONE',  ( 4.188000000000001499, -0.8119999999999923945, 5.128820794829114229E-16 ) ) ;
#368 = DIRECTION ( 'NONE',  ( 1.000000000000000000, 3.521087286166471152E-15, 0.000000000000000000 ) ) ;
#369 = EDGE_LOOP ( 'NONE', ( #181, #260, #75, #142 ) ) ;
#370 = AXIS2_PLACEMENT_3D ( 'NONE', #343, #64, #130 ) ;
#371 = DIRECTION ( 'NONE',  ( 1.000000000000000000, 3.521087286166471152E-15, 0.000000000000000000 ) ) ;
#372 = ORIENTED_EDGE ( 'NONE', *, *, #138, .T. ) ;
#373 = DIRECTION ( 'NONE',  ( 0.7071067811865450192, 0.7071067811865500152, 8.659560562354931626E-17 ) ) ;
#374 = SURFACE_STYLE_USAGE ( .BOTH. , #199 ) ;
#375 = VERTEX_POINT ( 'NONE', #365 ) ;
#376 = ADVANCED_FACE ( 'CYL_0', ( #184 ), #252, .F. ) ;
#377 = CARTESIAN_POINT ( 'NONE',  ( 1.052812860999396167E-13, -30.00000000000000000, 0.000000000000000000 ) ) ;
#378 = ORIENTED_EDGE ( 'NONE', *, *, #360, .F. ) ;
#379 = EDGE_CURVE ( 'NONE', #9, #212, #112, .T. ) ;
#380 = FACE_OUTER_BOUND ( 'NONE', #320, .T. ) ;
#381 = VECTOR ( 'NONE', #113, 1000.000000000000114 ) ;
#382 = FILL_AREA_STYLE_COLOUR ( '', #46 ) ;
#383 = DIRECTION ( 'NONE',  ( 1.000000000000000000, 3.521087286166470758E-15, 0.000000000000000000 ) ) ;
#384 = DIRECTION ( 'NONE',  ( 1.000000000000000000, 0.000000000000000000, 0.000000000000000000 ) ) ;
#385 = ADVANCED_FACE ( 'CONE_3', ( #149 ), #101, .T. ) ;
#386 = FILL_AREA_STYLE ('',( #382 ) ) ;
#387 = CARTESIAN_POINT ( 'NONE',  ( 5.000000000000111910, -29.99999999999998224, 0.000000000000000000 ) ) ;
#388 = ORIENTED_EDGE ( 'NONE', *, *, #55, .F. ) ;
#389 = PRODUCT_RELATED_PRODUCT_CATEGORY ( 'part', '', ( #353 ) ) ;
#390 = LINE ( 'NONE', #20, #395 ) ;
#391 = VECTOR ( 'NONE', #373, 1000.000000000000000 ) ;
#392 = VERTEX_POINT ( 'NONE', #336 ) ;
#393 = ADVANCED_FACE ( 'CONE_1', ( #25 ), #54, .F. ) ;
#394 = CARTESIAN_POINT ( 'NONE',  ( -5.772999999999991694, -2.032723690303900687E-14, 7.821206782754561396E-16 ) ) ;
#395 = VECTOR ( 'NONE', #330, 1000.000000000000000 ) ;
#396 =( GEOMETRIC_REPRESENTATION_CONTEXT ( 3 ) GLOBAL_UNCERTAINTY_ASSIGNED_CONTEXT ( ( #206 ) ) GLOBAL_UNIT_ASSIGNED_CONTEXT ( ( #188, #332, #37 ) ) REPRESENTATION_CONTEXT ( 'NONE', 'WORKASPACE' ) );
#397 = ORIENTED_EDGE ( 'NONE', *, *, #131, .T. ) ;
#398 = CIRCLE ( 'NONE', #73, 5.000000000000006217 ) ;
#399 = VECTOR ( 'NONE', #341, 1000.000000000000114 ) ;
ENDSEC;
END-ISO-10303-21;
