ISO-10303-21;
HEADER;
FILE_DESCRIPTION (( 'STEP AP214' ),
    '1' );
FILE_NAME ('1.35.1141015.STEP',
    '2024-10-11T20:21:18',
    ( '' ),
    ( '' ),
    'SwSTEP 2.0',
    'SolidWorks 2024',
    '' );
FILE_SCHEMA (( 'AUTOMOTIVE_DESIGN' ));
ENDSEC;

DATA;
#1 = VERTEX_POINT ( 'NONE', #165 ) ;
#2 = CARTESIAN_POINT ( 'NONE',  ( 4.937187933383495226E-14, -14.18799999999999173, 0.000000000000000000 ) ) ;
#3 = CIRCLE ( 'NONE', #347, 5.000000000000007105 ) ;
#4 = LINE ( 'NONE', #348, #338 ) ;
#5 = DIRECTION ( 'NONE',  ( 3.491481338843133355E-15, -1.000000000000000000, 0.000000000000000000 ) ) ;
#6 = CARTESIAN_POINT ( 'NONE',  ( 4.937187933383495226E-14, -14.18799999999999173, 4.187999999999999723 ) ) ;
#7 = CONICAL_SURFACE ( 'NONE', #263, 5.000000000000007105, 0.7853981633974482790 ) ;
#8 = CARTESIAN_POINT ( 'NONE',  ( 5.159463878140193084E-14, -15.00000000000000000, -5.000000000000007105 ) ) ;
#9 = DIRECTION ( 'NONE',  ( 3.491481338843133355E-15, -1.000000000000000000, 0.000000000000000000 ) ) ;
#10 = EDGE_CURVE ( 'NONE', #11, #121, #378, .T. ) ;
#11 = VERTEX_POINT ( 'NONE', #102 ) ;
#12 = CARTESIAN_POINT ( 'NONE',  ( -1.652579016713931321E-16, 0.000000000000000000, 6.999999999999996447 ) ) ;
#13 = AXIS2_PLACEMENT_3D ( 'NONE', #225, #129, #131 ) ;
#14 = AXIS2_PLACEMENT_3D ( 'NONE', #266, #113, #201 ) ;
#15 = ORIENTED_EDGE ( 'NONE', *, *, #342, .F. ) ;
#16 = DIRECTION ( 'NONE',  ( 0.000000000000000000, 0.000000000000000000, 1.000000000000000000 ) ) ;
#17 = ADVANCED_FACE ( 'CONE_3', ( #193 ), #25, .T. ) ;
#18 = EDGE_LOOP ( 'NONE', ( #276, #364, #37, #135 ) ) ;
#19 = LINE ( 'NONE', #111, #127 ) ;
#20 = DIRECTION ( 'NONE',  ( 3.491481338843133355E-15, -1.000000000000000000, 0.000000000000000000 ) ) ;
#21 = EDGE_LOOP ( 'NONE', ( #240, #52, #15, #189 ) ) ;
#22 = DIRECTION ( 'NONE',  ( 3.491481338843133355E-15, -1.000000000000000000, 0.000000000000000000 ) ) ;
#23 = FACE_OUTER_BOUND ( 'NONE', #253, .T. ) ;
#24 = VERTEX_POINT ( 'NONE', #196 ) ;
#25 = CONICAL_SURFACE ( 'NONE', #290, 6.999999999999999112, 0.7853981633974485010 ) ;
#26 = CIRCLE ( 'NONE', #207, 5.772999999999992582 ) ;
#27 = DIRECTION ( 'NONE',  ( 0.000000000000000000, 0.000000000000000000, 1.000000000000000000 ) ) ;
#28 = FACE_OUTER_BOUND ( 'NONE', #250, .T. ) ;
#29 = ORIENTED_EDGE ( 'NONE', *, *, #217, .F. ) ;
#30 = EDGE_CURVE ( 'NONE', #61, #208, #4, .T. ) ;
#31 = ORIENTED_EDGE ( 'NONE', *, *, #355, .T. ) ;
#32 = EDGE_CURVE ( 'NONE', #115, #112, #254, .T. ) ;
#33 = ORIENTED_EDGE ( 'NONE', *, *, #10, .F. ) ;
#34 = DIRECTION ( 'NONE',  ( 3.491481338843133355E-15, -1.000000000000000000, 0.000000000000000000 ) ) ;
#35 = CARTESIAN_POINT ( 'NONE',  ( 4.792291457821508063E-14, -13.77299999999999969, 0.000000000000000000 ) ) ;
#36 = CARTESIAN_POINT ( 'NONE',  ( 2.669824945469256237E-15, -0.8120000000000071605, 0.000000000000000000 ) ) ;
#37 = ORIENTED_EDGE ( 'NONE', *, *, #285, .T. ) ;
#38 = ORIENTED_EDGE ( 'NONE', *, *, #345, .T. ) ;
#39 = DIRECTION ( 'NONE',  ( 3.491481338843133355E-15, -1.000000000000000000, 0.000000000000000000 ) ) ;
#40 = VECTOR ( 'NONE', #139, 1000.000000000000000 ) ;
#41 = ORIENTED_EDGE ( 'NONE', *, *, #30, .T. ) ;
#42 = CARTESIAN_POINT ( 'NONE',  ( 0.000000000000000000, 0.000000000000000000, 0.000000000000000000 ) ) ;
#43 = DIRECTION ( 'NONE',  ( 0.000000000000000000, 0.000000000000000000, 1.000000000000000000 ) ) ;
#44 = ADVANCED_FACE ( 'CONE_1', ( #68 ), #327, .F. ) ;
#45 = CARTESIAN_POINT ( 'NONE',  ( -1.652579016713931321E-16, 0.000000000000000000, 0.000000000000000000 ) ) ;
#46 = AXIS2_PLACEMENT_3D ( 'NONE', #374, #346, #65 ) ;
#47 = VECTOR ( 'NONE', #333, 1000.000000000000000 ) ;
#48 = LINE ( 'NONE', #119, #243 ) ;
#49 = SURFACE_SIDE_STYLE ('',( #212 ) ) ;
#50 = DIRECTION ( 'NONE',  ( 0.000000000000000000, 0.000000000000000000, 1.000000000000000000 ) ) ;
#51 = FILL_AREA_STYLE ('',( #366 ) ) ;
#52 = ORIENTED_EDGE ( 'NONE', *, *, #58, .T. ) ;
#53 = CYLINDRICAL_SURFACE ( 'NONE', #214, 4.187999999999999723 ) ;
#54 = DIRECTION ( 'NONE',  ( 3.491481338843133355E-15, -1.000000000000000000, 0.000000000000000000 ) ) ;
#55 = CONICAL_SURFACE ( 'NONE', #150, 5.772999999999992582, 0.7853981633974490562 ) ;
#56 = CIRCLE ( 'NONE', #392, 4.187999999999999723 ) ;
#57 = CARTESIAN_POINT ( 'NONE',  ( -7.775813012450710669E-16, 0.000000000000000000, 5.000000000000007105 ) ) ;
#58 = EDGE_CURVE ( 'NONE', #311, #61, #373, .T. ) ;
#59 = ORIENTED_EDGE ( 'NONE', *, *, #69, .T. ) ;
#60 = ORIENTED_EDGE ( 'NONE', *, *, #32, .F. ) ;
#61 = VERTEX_POINT ( 'NONE', #372 ) ;
#62 = VECTOR ( 'NONE', #120, 999.9999999999998863 ) ;
#63 = CIRCLE ( 'NONE', #227, 5.000000000000007105 ) ;
#64 = CARTESIAN_POINT ( 'NONE',  ( -8.722464988191591032E-16, -2.468437493716311198E-30, -5.772999999999992582 ) ) ;
#65 = DIRECTION ( 'NONE',  ( 0.000000000000000000, 0.000000000000000000, 1.000000000000000000 ) ) ;
#66 = EDGE_LOOP ( 'NONE', ( #215, #128 ) ) ;
#67 = VECTOR ( 'NONE', #222, 1000.000000000000000 ) ;
#68 = FACE_OUTER_BOUND ( 'NONE', #184, .T. ) ;
#69 = EDGE_CURVE ( 'NONE', #121, #1, #167, .T. ) ;
#70 = CARTESIAN_POINT ( 'NONE',  ( 2.669824945469256237E-15, -0.8120000000000071605, 4.187999999999999723 ) ) ;
#71 = DIRECTION ( 'NONE',  ( -2.555445736705814795E-15, 0.7071067811865473507, 0.7071067811865477948 ) ) ;
#72 = CIRCLE ( 'NONE', #295, 4.187999999999999723 ) ;
#73 = DIRECTION ( 'NONE',  ( 2.468850131082263766E-15, -0.7071067811865470176, 0.7071067811865481278 ) ) ;
#74 = DIRECTION ( 'NONE',  ( 3.491481338843133355E-15, -1.000000000000000000, 0.000000000000000000 ) ) ;
#75 = ORIENTED_EDGE ( 'NONE', *, *, #10, .T. ) ;
#76 = DIRECTION ( 'NONE',  ( 0.000000000000000000, 0.000000000000000000, 1.000000000000000000 ) ) ;
#77 = DIRECTION ( 'NONE',  ( 0.000000000000000000, 0.000000000000000000, 1.000000000000000000 ) ) ;
#78 = CONICAL_SURFACE ( 'NONE', #155, 4.187999999999999723, 0.7853981633974482790 ) ;
#79 = EDGE_LOOP ( 'NONE', ( #203, #313, #100, #297 ) ) ;
#80 = DIRECTION ( 'NONE',  ( 3.491481338843133355E-15, -1.000000000000000000, 0.000000000000000000 ) ) ;
#81 = CARTESIAN_POINT ( 'NONE',  ( -5.000000000000007105, -1.734723475976807094E-14, 0.000000000000000000 ) ) ;
#82 = ORIENTED_EDGE ( 'NONE', *, *, #86, .F. ) ;
#83 = DIRECTION ( 'NONE',  ( 3.491481338843133355E-15, -1.000000000000000000, 0.000000000000000000 ) ) ;
#84 = DIRECTION ( 'NONE',  ( 3.491481338843133355E-15, -1.000000000000000000, 0.000000000000000000 ) ) ;
#85 = ORIENTED_EDGE ( 'NONE', *, *, #384, .T. ) ;
#86 = EDGE_CURVE ( 'NONE', #11, #105, #72, .T. ) ;
#87 = CARTESIAN_POINT ( 'NONE',  ( 4.792291457821508063E-14, -13.77299999999999969, -6.999999999999999112 ) ) ;
#88 = ORIENTED_EDGE ( 'NONE', *, *, #335, .T. ) ;
#89 = PRODUCT_RELATED_PRODUCT_CATEGORY ( 'part', '', ( #147 ) ) ;
#90 = DIRECTION ( 'NONE',  ( 0.000000000000000000, 0.000000000000000000, 1.000000000000000000 ) ) ;
#91 = ADVANCED_FACE ( 'CONE_2', ( #375 ), #160, .T. ) ;
#92 = EDGE_LOOP ( 'NONE', ( #94, #156 ) ) ;
#93 = APPLICATION_CONTEXT ( 'automotive_design' ) ;
#94 = ORIENTED_EDGE ( 'NONE', *, *, #345, .F. ) ;
#95 = ORIENTED_EDGE ( 'NONE', *, *, #248, .T. ) ;
#96 = AXIS2_PLACEMENT_3D ( 'NONE', #363, #54, #168 ) ;
#97 = CIRCLE ( 'NONE', #173, 6.999999999999993783 ) ;
#98 = DIRECTION ( 'NONE',  ( 0.000000000000000000, 0.000000000000000000, 1.000000000000000000 ) ) ;
#99 = ADVANCED_BREP_SHAPE_REPRESENTATION ( '1.35.1141015', ( #187, #382 ), #339 ) ;
#100 = ORIENTED_EDGE ( 'NONE', *, *, #164, .T. ) ;
#101 = EDGE_CURVE ( 'NONE', #262, #279, #381, .T. ) ;
#102 = CARTESIAN_POINT ( 'NONE',  ( 5.022681801787699180E-14, -14.18799999999999173, -4.187999999999999723 ) ) ;
#103 = COLOUR_RGB ( '',0.7921568627450980005, 0.8196078431372548767, 0.9333333333333333481 ) ;
#104 = VECTOR ( 'NONE', #236, 1000.000000000000000 ) ;
#105 = VERTEX_POINT ( 'NONE', #6 ) ;
#106 = ADVANCED_FACE ( 'CYL_1', ( #223 ), #258, .T. ) ;
#107 = CARTESIAN_POINT ( 'NONE',  ( 4.706566181881194090E-14, -13.77299999999999969, 6.999999999999999112 ) ) ;
#108 = DIRECTION ( 'NONE',  ( 3.491481338843133355E-15, -1.000000000000000000, 0.000000000000000000 ) ) ;
#109 = CIRCLE ( 'NONE', #200, 5.000000000000007105 ) ;
#110 = EDGE_LOOP ( 'NONE', ( #385, #41, #336, #153 ) ) ;
#111 = CARTESIAN_POINT ( 'NONE',  ( -1.652579016713931321E-16, 0.000000000000000000, 4.187999999999999723 ) ) ;
#112 = VERTEX_POINT ( 'NONE', #259 ) ;
#113 = DIRECTION ( 'NONE',  ( 3.491481338843133355E-15, -1.000000000000000000, 0.000000000000000000 ) ) ;
#114 =( NAMED_UNIT ( * ) PLANE_ANGLE_UNIT ( ) SI_UNIT ( $, .RADIAN. ) );
#115 = VERTEX_POINT ( 'NONE', #70 ) ;
#116 = FACE_OUTER_BOUND ( 'NONE', #163, .T. ) ;
#117 = LINE ( 'NONE', #87, #62 ) ;
#118 = CONICAL_SURFACE ( 'NONE', #277, 5.000000000000007105, 0.7853981633974482790 ) ;
#119 = CARTESIAN_POINT ( 'NONE',  ( 2.669824945469256237E-15, -0.8120000000000071605, -4.187999999999999723 ) ) ;
#120 = DIRECTION ( 'NONE',  ( -2.468850131082265344E-15, 0.7071067811865473507, -0.7071067811865477948 ) ) ;
#121 = VERTEX_POINT ( 'NONE', #194 ) ;
#122 =( LENGTH_UNIT ( ) NAMED_UNIT ( * ) SI_UNIT ( .MILLI., .METRE. ) );
#123 = ORIENTED_EDGE ( 'NONE', *, *, #86, .T. ) ;
#124 = ADVANCED_FACE ( 'CONE_3', ( #314 ), #322, .T. ) ;
#125 = DIRECTION ( 'NONE',  ( 0.000000000000000000, 0.000000000000000000, 1.000000000000000000 ) ) ;
#126 = VECTOR ( 'NONE', #84, 1000.000000000000000 ) ;
#127 = VECTOR ( 'NONE', #22, 1000.000000000000000 ) ;
#128 = ORIENTED_EDGE ( 'NONE', *, *, #101, .T. ) ;
#129 = DIRECTION ( 'NONE',  ( 3.491481338843133355E-15, -1.000000000000000000, 0.000000000000000000 ) ) ;
#130 = DIRECTION ( 'NONE',  ( 3.491481338843133355E-15, -1.000000000000000000, 0.000000000000000000 ) ) ;
#131 = DIRECTION ( 'NONE',  ( 0.000000000000000000, 0.000000000000000000, 1.000000000000000000 ) ) ;
#132 = ADVANCED_FACE ( 'CONE_2', ( #389 ), #55, .T. ) ;
#133 = DIRECTION ( 'NONE',  ( 0.000000000000000000, 0.000000000000000000, 1.000000000000000000 ) ) ;
#134 = CIRCLE ( 'NONE', #183, 5.772999999999992582 ) ;
#135 = ORIENTED_EDGE ( 'NONE', *, *, #274, .F. ) ;
#136 = SHAPE_DEFINITION_REPRESENTATION ( #361, #99 ) ;
#137 = VERTEX_POINT ( 'NONE', #292 ) ;
#138 = VERTEX_POINT ( 'NONE', #57 ) ;
#139 = DIRECTION ( 'NONE',  ( 3.491481338843133355E-15, -1.000000000000000000, 0.000000000000000000 ) ) ;
#140 = STYLED_ITEM ( 'NONE', ( #299 ), #187 ) ;
#141 = LINE ( 'NONE', #386, #329 ) ;
#142 = ADVANCED_FACE ( 'CONE_0', ( #210 ), #7, .F. ) ;
#143 = DIRECTION ( 'NONE',  ( 0.000000000000000000, 0.000000000000000000, 1.000000000000000000 ) ) ;
#144 = ORIENTED_EDGE ( 'NONE', *, *, #335, .F. ) ;
#145 = CYLINDRICAL_SURFACE ( 'NONE', #291, 6.999999999999996447 ) ;
#146 = FACE_BOUND ( 'NONE', #343, .T. ) ;
#147 = PRODUCT ( '1.35.1141015', '1.35.1141015', '', ( #377 ) ) ;
#148 = CARTESIAN_POINT ( 'NONE',  ( 4.928281770131988421E-14, -15.00000000000000000, 5.772999999999999687 ) ) ;
#149 = DIRECTION ( 'NONE',  ( -3.491481338843133355E-15, 1.000000000000000000, 0.000000000000000000 ) ) ;
#150 = AXIS2_PLACEMENT_3D ( 'NONE', #177, #152, #181 ) ;
#151 = DIRECTION ( 'NONE',  ( 0.000000000000000000, 0.000000000000000000, 1.000000000000000000 ) ) ;
#152 = DIRECTION ( 'NONE',  ( 3.491481338843133355E-15, -1.000000000000000000, 0.000000000000000000 ) ) ;
#153 = ORIENTED_EDGE ( 'NONE', *, *, #285, .F. ) ;
#154 = AXIS2_PLACEMENT_3D ( 'NONE', #281, #5, #315 ) ;
#155 = AXIS2_PLACEMENT_3D ( 'NONE', #275, #332, #242 ) ;
#156 = ORIENTED_EDGE ( 'NONE', *, *, #69, .F. ) ;
#157 = DIRECTION ( 'NONE',  ( 2.382254525458714314E-15, -0.7071067811865470176, -0.7071067811865481278 ) ) ;
#158 = DIRECTION ( 'NONE',  ( -3.491481338843133355E-15, 1.000000000000000000, 0.000000000000000000 ) ) ;
#159 = EDGE_CURVE ( 'NONE', #112, #11, #387, .T. ) ;
#160 = CONICAL_SURFACE ( 'NONE', #13, 5.772999999999992582, 0.7853981633974490562 ) ;
#161 = PRODUCT_DEFINITION_FORMATION_WITH_SPECIFIED_SOURCE ( 'ANY', '', #147, .NOT_KNOWN. ) ;
#162 = PRODUCT_DEFINITION ( 'UNKNOWN', '', #161, #344 ) ;
#163 = EDGE_LOOP ( 'NONE', ( #246, #60, #368, #390 ) ) ;
#164 = EDGE_CURVE ( 'NONE', #279, #208, #117, .T. ) ;
#165 = CARTESIAN_POINT ( 'NONE',  ( 5.220696218097560658E-14, -15.00000000000000000, 5.000000000000007105 ) ) ;
#166 = DIRECTION ( 'NONE',  ( -3.491481338843133355E-15, 1.000000000000000000, 0.000000000000000000 ) ) ;
#167 = CIRCLE ( 'NONE', #154, 5.000000000000007105 ) ;
#168 = DIRECTION ( 'NONE',  ( 0.000000000000000000, 0.000000000000000000, 1.000000000000000000 ) ) ;
#169 = DIRECTION ( 'NONE',  ( 0.000000000000000000, 0.000000000000000000, 1.000000000000000000 ) ) ;
#170 = DIRECTION ( 'NONE',  ( 3.491481338843133355E-15, -1.000000000000000000, 0.000000000000000000 ) ) ;
#171 = ADVANCED_FACE ( 'CYL_0', ( #271 ), #245, .F. ) ;
#172 = DIRECTION ( 'NONE',  ( 0.000000000000000000, 0.000000000000000000, 1.000000000000000000 ) ) ;
#173 = AXIS2_PLACEMENT_3D ( 'NONE', #356, #179, #43 ) ;
#174 = ORIENTED_EDGE ( 'NONE', *, *, #217, .T. ) ;
#175 = PLANE ( 'NONE',  #323 ) ;
#176 = ADVANCED_FACE ( 'CONE_0', ( #28 ), #118, .F. ) ;
#177 = CARTESIAN_POINT ( 'NONE',  ( -1.652579016713931321E-16, 0.000000000000000000, 0.000000000000000000 ) ) ;
#178 = ORIENTED_EDGE ( 'NONE', *, *, #308, .F. ) ;
#179 = DIRECTION ( 'NONE',  ( 3.491481338843133355E-15, -1.000000000000000000, 0.000000000000000000 ) ) ;
#180 = CARTESIAN_POINT ( 'NONE',  ( 2.156942865986344518E-15, -0.8120000000000071605, 4.187999999999999723 ) ) ;
#181 = DIRECTION ( 'NONE',  ( 0.000000000000000000, 0.000000000000000000, 1.000000000000000000 ) ) ;
#182 = AXIS2_PLACEMENT_3D ( 'NONE', #340, #130, #257 ) ;
#183 = AXIS2_PLACEMENT_3D ( 'NONE', #249, #216, #125 ) ;
#184 = EDGE_LOOP ( 'NONE', ( #352, #237, #31, #178 ) ) ;
#185 = DIRECTION ( 'NONE',  ( 0.000000000000000000, 0.000000000000000000, 1.000000000000000000 ) ) ;
#186 = ORIENTED_EDGE ( 'NONE', *, *, #101, .F. ) ;
#187 = MANIFOLD_SOLID_BREP ( 'Body-Move/Copy2', #397 ) ;
#188 =( LENGTH_UNIT ( ) NAMED_UNIT ( * ) SI_UNIT ( .MILLI., .METRE. ) );
#189 = ORIENTED_EDGE ( 'NONE', *, *, #316, .F. ) ;
#190 = VECTOR ( 'NONE', #157, 1000.000000000000000 ) ;
#191 = AXIS2_PLACEMENT_3D ( 'NONE', #353, #80, #151 ) ;
#192 = APPLICATION_CONTEXT ( 'automotive_design' ) ;
#193 = FACE_OUTER_BOUND ( 'NONE', #394, .T. ) ;
#194 = CARTESIAN_POINT ( 'NONE',  ( 5.159463878140193084E-14, -15.00000000000000000, -5.000000000000007105 ) ) ;
#195 = ADVANCED_FACE ( 'CONE_1', ( #360 ), #78, .F. ) ;
#196 = CARTESIAN_POINT ( 'NONE',  ( 4.118789701089130626E-15, -1.226999999999999869, 6.999999999999993783 ) ) ;
#197 = ORIENTED_EDGE ( 'NONE', *, *, #164, .F. ) ;
#198 = ORIENTED_EDGE ( 'NONE', *, *, #159, .T. ) ;
#199 = CARTESIAN_POINT ( 'NONE',  ( -1.652579016713931321E-16, 0.000000000000000000, 0.000000000000000000 ) ) ;
#200 = AXIS2_PLACEMENT_3D ( 'NONE', #45, #270, #50 ) ;
#201 = DIRECTION ( 'NONE',  ( 0.000000000000000000, 0.000000000000000000, 1.000000000000000000 ) ) ;
#202 = EDGE_CURVE ( 'NONE', #262, #137, #239, .T. ) ;
#203 = ORIENTED_EDGE ( 'NONE', *, *, #202, .F. ) ;
#204 = CARTESIAN_POINT ( 'NONE',  ( -1.652579016713931321E-16, 0.000000000000000000, 0.000000000000000000 ) ) ;
#205 = EDGE_CURVE ( 'NONE', #105, #11, #351, .T. ) ;
#206 = CARTESIAN_POINT ( 'NONE',  ( 5.220696218097560658E-14, -15.00000000000000000, 5.000000000000007105 ) ) ;
#207 = AXIS2_PLACEMENT_3D ( 'NONE', #199, #20, #77 ) ;
#208 = VERTEX_POINT ( 'NONE', #349 ) ;
#209 = LINE ( 'NONE', #206, #104 ) ;
#210 = FACE_OUTER_BOUND ( 'NONE', #395, .T. ) ;
#211 = LINE ( 'NONE', #180, #47 ) ;
#212 = SURFACE_STYLE_FILL_AREA ( #51 ) ;
#213 = EDGE_LOOP ( 'NONE', ( #341, #174, #370, #280 ) ) ;
#214 = AXIS2_PLACEMENT_3D ( 'NONE', #204, #241, #172 ) ;
#215 = ORIENTED_EDGE ( 'NONE', *, *, #317, .T. ) ;
#216 = DIRECTION ( 'NONE',  ( 3.491481338843133355E-15, -1.000000000000000000, 0.000000000000000000 ) ) ;
#217 = EDGE_CURVE ( 'NONE', #311, #218, #26, .T. ) ;
#218 = VERTEX_POINT ( 'NONE', #330 ) ;
#219 =( NAMED_UNIT ( * ) SI_UNIT ( $, .STERADIAN. ) SOLID_ANGLE_UNIT ( ) );
#220 = ADVANCED_FACE ( 'PLANAR_1', ( #23, #146 ), #268, .F. ) ;
#221 = UNCERTAINTY_MEASURE_WITH_UNIT (LENGTH_MEASURE( 1.000000000000000082E-05 ), #188, 'distance_accuracy_value', 'NONE');
#222 = DIRECTION ( 'NONE',  ( 2.382254525458716286E-15, -0.7071067811865475727, -0.7071067811865474617 ) ) ;
#223 = FACE_OUTER_BOUND ( 'NONE', #18, .T. ) ;
#224 = DIRECTION ( 'NONE',  ( 0.000000000000000000, 0.000000000000000000, -1.000000000000000000 ) ) ;
#225 = CARTESIAN_POINT ( 'NONE',  ( -1.652579016713931321E-16, 0.000000000000000000, 0.000000000000000000 ) ) ;
#226 = AXIS2_PLACEMENT_3D ( 'NONE', #35, #149, #393 ) ;
#227 = AXIS2_PLACEMENT_3D ( 'NONE', #294, #108, #328 ) ;
#228 = CARTESIAN_POINT ( 'NONE',  ( 5.220696218097560658E-14, -15.00000000000000000, 0.000000000000000000 ) ) ;
#229 = DIRECTION ( 'NONE',  ( 3.491481338843133355E-15, -1.000000000000000000, 0.000000000000000000 ) ) ;
#230 = APPLICATION_PROTOCOL_DEFINITION ( 'draft international standard', 'automotive_design', 1998, #93 ) ;
#231 = DIRECTION ( 'NONE',  ( 3.491481338843133355E-15, -1.000000000000000000, 0.000000000000000000 ) ) ;
#232 = CIRCLE ( 'NONE', #191, 6.999999999999999112 ) ;
#233 = EDGE_CURVE ( 'NONE', #218, #311, #134, .T. ) ;
#234 = ORIENTED_EDGE ( 'NONE', *, *, #205, .F. ) ;
#235 = EDGE_CURVE ( 'NONE', #289, #138, #3, .T. ) ;
#236 = DIRECTION ( 'NONE',  ( 2.468850131082265738E-15, -0.7071067811865475727, 0.7071067811865474617 ) ) ;
#237 = ORIENTED_EDGE ( 'NONE', *, *, #32, .T. ) ;
#238 = CARTESIAN_POINT ( 'NONE',  ( -1.652579016713931321E-16, 0.000000000000000000, -5.000000000000007105 ) ) ;
#239 = LINE ( 'NONE', #107, #376 ) ;
#240 = ORIENTED_EDGE ( 'NONE', *, *, #233, .T. ) ;
#241 = DIRECTION ( 'NONE',  ( 3.491481338843133355E-15, -1.000000000000000000, 0.000000000000000000 ) ) ;
#242 = DIRECTION ( 'NONE',  ( 0.000000000000000000, 0.000000000000000000, -1.000000000000000000 ) ) ;
#243 = VECTOR ( 'NONE', #301, 1000.000000000000000 ) ;
#244 = FACE_OUTER_BOUND ( 'NONE', #66, .T. ) ;
#245 = CYLINDRICAL_SURFACE ( 'NONE', #96, 4.187999999999999723 ) ;
#246 = ORIENTED_EDGE ( 'NONE', *, *, #159, .F. ) ;
#247 =( NAMED_UNIT ( * ) SI_UNIT ( $, .STERADIAN. ) SOLID_ANGLE_UNIT ( ) );
#248 = EDGE_CURVE ( 'NONE', #137, #208, #278, .T. ) ;
#249 = CARTESIAN_POINT ( 'NONE',  ( -1.652579016713931321E-16, 0.000000000000000000, 0.000000000000000000 ) ) ;
#250 = EDGE_LOOP ( 'NONE', ( #33, #234, #318, #38 ) ) ;
#251 = ADVANCED_FACE ( 'CYL_0', ( #116 ), #53, .F. ) ;
#252 = EDGE_CURVE ( 'NONE', #115, #105, #19, .T. ) ;
#253 = EDGE_LOOP ( 'NONE', ( #273, #29 ) ) ;
#254 = CIRCLE ( 'NONE', #182, 4.187999999999999723 ) ;
#255 = DIRECTION ( 'NONE',  ( 3.491481338843133355E-15, -1.000000000000000000, 0.000000000000000000 ) ) ;
#256 = AXIS2_PLACEMENT_3D ( 'NONE', #81, #396, #90 ) ;
#257 = DIRECTION ( 'NONE',  ( 0.000000000000000000, 0.000000000000000000, 1.000000000000000000 ) ) ;
#258 = CYLINDRICAL_SURFACE ( 'NONE', #46, 6.999999999999996447 ) ;
#259 = CARTESIAN_POINT ( 'NONE',  ( 2.550797006016919430E-14, -0.8120000000000071605, -4.187999999999999723 ) ) ;
#260 =( GEOMETRIC_REPRESENTATION_CONTEXT ( 3 ) GLOBAL_UNCERTAINTY_ASSIGNED_CONTEXT ( ( #369 ) ) GLOBAL_UNIT_ASSIGNED_CONTEXT ( ( #122, #114, #247 ) ) REPRESENTATION_CONTEXT ( 'NONE', 'WORKASPACE' ) );
#261 = ORIENTED_EDGE ( 'NONE', *, *, #308, .T. ) ;
#262 = VERTEX_POINT ( 'NONE', #148 ) ;
#263 = AXIS2_PLACEMENT_3D ( 'NONE', #321, #39, #185 ) ;
#264 = CARTESIAN_POINT ( 'NONE',  ( -1.652579016713931321E-16, 0.000000000000000000, 0.000000000000000000 ) ) ;
#265 = MECHANICAL_DESIGN_GEOMETRIC_PRESENTATION_REPRESENTATION (  '', ( #140 ), #260 ) ;
#266 = CARTESIAN_POINT ( 'NONE',  ( 5.220696218097560658E-14, -15.00000000000000000, 0.000000000000000000 ) ) ;
#267 = CARTESIAN_POINT ( 'NONE',  ( 4.792291457821508063E-14, -13.77299999999999969, 0.000000000000000000 ) ) ;
#268 = PLANE ( 'NONE',  #256 ) ;
#269 = ORIENTED_EDGE ( 'NONE', *, *, #288, .F. ) ;
#270 = DIRECTION ( 'NONE',  ( 3.491481338843133355E-15, -1.000000000000000000, 0.000000000000000000 ) ) ;
#271 = FACE_OUTER_BOUND ( 'NONE', #272, .T. ) ;
#272 = EDGE_LOOP ( 'NONE', ( #144, #198, #123, #293 ) ) ;
#273 = ORIENTED_EDGE ( 'NONE', *, *, #233, .F. ) ;
#274 = EDGE_CURVE ( 'NONE', #208, #137, #232, .T. ) ;
#275 = CARTESIAN_POINT ( 'NONE',  ( 2.669824945469256237E-15, -0.8120000000000071605, 0.000000000000000000 ) ) ;
#276 = ORIENTED_EDGE ( 'NONE', *, *, #30, .F. ) ;
#277 = AXIS2_PLACEMENT_3D ( 'NONE', #307, #9, #143 ) ;
#278 = CIRCLE ( 'NONE', #359, 6.999999999999999112 ) ;
#279 = VERTEX_POINT ( 'NONE', #354 ) ;
#280 = ORIENTED_EDGE ( 'NONE', *, *, #319, .F. ) ;
#281 = CARTESIAN_POINT ( 'NONE',  ( 5.220696218097560658E-14, -15.00000000000000000, 0.000000000000000000 ) ) ;
#282 = DIRECTION ( 'NONE',  ( 0.000000000000000000, 0.000000000000000000, -1.000000000000000000 ) ) ;
#283 = CIRCLE ( 'NONE', #398, 6.999999999999993783 ) ;
#284 = CARTESIAN_POINT ( 'NONE',  ( 4.792291457821508063E-14, -13.77299999999999969, 0.000000000000000000 ) ) ;
#285 = EDGE_CURVE ( 'NONE', #24, #137, #358, .T. ) ;
#286 = DIRECTION ( 'NONE',  ( 3.491481338843133355E-15, -1.000000000000000000, 0.000000000000000000 ) ) ;
#287 = DIRECTION ( 'NONE',  ( 1.000000000000000000, 0.000000000000000000, 0.000000000000000000 ) ) ;
#288 = EDGE_CURVE ( 'NONE', #105, #1, #209, .T. ) ;
#289 = VERTEX_POINT ( 'NONE', #238 ) ;
#290 = AXIS2_PLACEMENT_3D ( 'NONE', #284, #158, #282 ) ;
#291 = AXIS2_PLACEMENT_3D ( 'NONE', #264, #231, #383 ) ;
#292 = CARTESIAN_POINT ( 'NONE',  ( 4.792291457821508063E-14, -13.77299999999999969, 6.999999999999999112 ) ) ;
#293 = ORIENTED_EDGE ( 'NONE', *, *, #252, .F. ) ;
#294 = CARTESIAN_POINT ( 'NONE',  ( 5.220696218097560658E-14, -15.00000000000000000, 0.000000000000000000 ) ) ;
#295 = AXIS2_PLACEMENT_3D ( 'NONE', #2, #286, #133 ) ;
#296 = CARTESIAN_POINT ( 'NONE',  ( 1.194645221433412201E-15, 4.748076376954923509E-30, -5.772999999999992582 ) ) ;
#297 = ORIENTED_EDGE ( 'NONE', *, *, #274, .T. ) ;
#298 = FACE_OUTER_BOUND ( 'NONE', #110, .T. ) ;
#299 = PRESENTATION_STYLE_ASSIGNMENT (( #334 ) ) ;
#300 = ORIENTED_EDGE ( 'NONE', *, *, #355, .F. ) ;
#301 = DIRECTION ( 'NONE',  ( -2.468850131082265738E-15, 0.7071067811865475727, -0.7071067811865474617 ) ) ;
#302 = DIRECTION ( 'NONE',  ( 0.000000000000000000, 0.000000000000000000, 1.000000000000000000 ) ) ;
#303 = ORIENTED_EDGE ( 'NONE', *, *, #202, .T. ) ;
#304 = CARTESIAN_POINT ( 'NONE',  ( -5.772999999999947285, -15.00000000000001954, 0.000000000000000000 ) ) ;
#305 = AXIS2_PLACEMENT_3D ( 'NONE', #36, #166, #224 ) ;
#306 = PRESENTATION_LAYER_ASSIGNMENT (  '', '', ( #140 ) ) ;
#307 = CARTESIAN_POINT ( 'NONE',  ( 5.220696218097560658E-14, -15.00000000000000000, 0.000000000000000000 ) ) ;
#308 = EDGE_CURVE ( 'NONE', #138, #289, #109, .T. ) ;
#309 = CARTESIAN_POINT ( 'NONE',  ( -6.781399811543045796E-16, -1.790718209541646459E-30, -4.187999999999999723 ) ) ;
#310 = ADVANCED_FACE ( 'PLANAR_0', ( #326, #244 ), #175, .F. ) ;
#311 = VERTEX_POINT ( 'NONE', #296 ) ;
#312 = AXIS2_PLACEMENT_3D ( 'NONE', #357, #229, #302 ) ;
#313 = ORIENTED_EDGE ( 'NONE', *, *, #317, .F. ) ;
#314 = FACE_OUTER_BOUND ( 'NONE', #79, .T. ) ;
#315 = DIRECTION ( 'NONE',  ( 0.000000000000000000, 0.000000000000000000, 1.000000000000000000 ) ) ;
#316 = EDGE_CURVE ( 'NONE', #218, #24, #141, .T. ) ;
#317 = EDGE_CURVE ( 'NONE', #279, #262, #371, .T. ) ;
#318 = ORIENTED_EDGE ( 'NONE', *, *, #288, .T. ) ;
#319 = EDGE_CURVE ( 'NONE', #61, #24, #97, .T. ) ;
#320 = ORIENTED_EDGE ( 'NONE', *, *, #235, .F. ) ;
#321 = CARTESIAN_POINT ( 'NONE',  ( 5.220696218097560658E-14, -15.00000000000000000, 0.000000000000000000 ) ) ;
#322 = CONICAL_SURFACE ( 'NONE', #226, 6.999999999999999112, 0.7853981633974485010 ) ;
#323 = AXIS2_PLACEMENT_3D ( 'NONE', #304, #380, #362 ) ;
#324 = DIRECTION ( 'NONE',  ( 0.000000000000000000, 0.000000000000000000, 1.000000000000000000 ) ) ;
#325 = EDGE_LOOP ( 'NONE', ( #88, #85, #320, #300 ) ) ;
#326 = FACE_BOUND ( 'NONE', #92, .T. ) ;
#327 = CONICAL_SURFACE ( 'NONE', #305, 4.187999999999999723, 0.7853981633974482790 ) ;
#328 = DIRECTION ( 'NONE',  ( 0.000000000000000000, 0.000000000000000000, 1.000000000000000000 ) ) ;
#329 = VECTOR ( 'NONE', #73, 1000.000000000000000 ) ;
#330 = CARTESIAN_POINT ( 'NONE',  ( -1.652579016713931321E-16, 0.000000000000000000, 5.772999999999992582 ) ) ;
#331 = DIRECTION ( 'NONE',  ( 3.491481338843133355E-15, -1.000000000000000000, 0.000000000000000000 ) ) ;
#332 = DIRECTION ( 'NONE',  ( -3.491481338843133355E-15, 1.000000000000000000, 0.000000000000000000 ) ) ;
#333 = DIRECTION ( 'NONE',  ( -2.555445736705815190E-15, 0.7071067811865475727, 0.7071067811865474617 ) ) ;
#334 = SURFACE_STYLE_USAGE ( .BOTH. , #49 ) ;
#335 = EDGE_CURVE ( 'NONE', #112, #115, #56, .T. ) ;
#336 = ORIENTED_EDGE ( 'NONE', *, *, #248, .F. ) ;
#337 = ORIENTED_EDGE ( 'NONE', *, *, #235, .T. ) ;
#338 = VECTOR ( 'NONE', #34, 1000.000000000000000 ) ;
#339 =( GEOMETRIC_REPRESENTATION_CONTEXT ( 3 ) GLOBAL_UNCERTAINTY_ASSIGNED_CONTEXT ( ( #221 ) ) GLOBAL_UNIT_ASSIGNED_CONTEXT ( ( #188, #365, #219 ) ) REPRESENTATION_CONTEXT ( 'NONE', 'WORKASPACE' ) );
#340 = CARTESIAN_POINT ( 'NONE',  ( 2.669824945469256237E-15, -0.8120000000000071605, 0.000000000000000000 ) ) ;
#341 = ORIENTED_EDGE ( 'NONE', *, *, #58, .F. ) ;
#342 = EDGE_CURVE ( 'NONE', #24, #61, #283, .T. ) ;
#343 = EDGE_LOOP ( 'NONE', ( #337, #261 ) ) ;
#344 = PRODUCT_DEFINITION_CONTEXT ( 'detailed design', #93, 'design' ) ;
#345 = EDGE_CURVE ( 'NONE', #1, #121, #63, .T. ) ;
#346 = DIRECTION ( 'NONE',  ( 3.491481338843133355E-15, -1.000000000000000000, 0.000000000000000000 ) ) ;
#347 = AXIS2_PLACEMENT_3D ( 'NONE', #367, #74, #16 ) ;
#348 = CARTESIAN_POINT ( 'NONE',  ( -1.022510661074539983E-15, -2.993082012127869798E-30, -6.999999999999996447 ) ) ;
#349 = CARTESIAN_POINT ( 'NONE',  ( 2.516359938024895091E-14, -13.77299999999999969, -7.000000000000000000 ) ) ;
#350 = AXIS2_PLACEMENT_3D ( 'NONE', #228, #255, #98 ) ;
#351 = CIRCLE ( 'NONE', #312, 4.187999999999999723 ) ;
#352 = ORIENTED_EDGE ( 'NONE', *, *, #384, .F. ) ;
#353 = CARTESIAN_POINT ( 'NONE',  ( 4.792291457821508063E-14, -13.77299999999999969, 0.000000000000000000 ) ) ;
#354 = CARTESIAN_POINT ( 'NONE',  ( 5.006493837959534676E-14, -15.00000000000000000, -5.772999999999999687 ) ) ;
#355 = EDGE_CURVE ( 'NONE', #112, #289, #48, .T. ) ;
#356 = CARTESIAN_POINT ( 'NONE',  ( 4.118789701089132204E-15, -1.226999999999999869, 0.000000000000000000 ) ) ;
#357 = CARTESIAN_POINT ( 'NONE',  ( 4.937187933383495226E-14, -14.18799999999999173, 0.000000000000000000 ) ) ;
#358 = LINE ( 'NONE', #12, #40 ) ;
#359 = AXIS2_PLACEMENT_3D ( 'NONE', #267, #331, #324 ) ;
#360 = FACE_OUTER_BOUND ( 'NONE', #325, .T. ) ;
#361 = PRODUCT_DEFINITION_SHAPE ( 'NONE', 'NONE',  #162 ) ;
#362 = DIRECTION ( 'NONE',  ( 0.000000000000000000, -0.000000000000000000, -1.000000000000000000 ) ) ;
#363 = CARTESIAN_POINT ( 'NONE',  ( -1.652579016713931321E-16, 0.000000000000000000, 0.000000000000000000 ) ) ;
#364 = ORIENTED_EDGE ( 'NONE', *, *, #319, .T. ) ;
#365 =( NAMED_UNIT ( * ) PLANE_ANGLE_UNIT ( ) SI_UNIT ( $, .RADIAN. ) );
#366 = FILL_AREA_STYLE_COLOUR ( '', #103 ) ;
#367 = CARTESIAN_POINT ( 'NONE',  ( -1.652579016713931321E-16, 0.000000000000000000, 0.000000000000000000 ) ) ;
#368 = ORIENTED_EDGE ( 'NONE', *, *, #252, .T. ) ;
#369 = UNCERTAINTY_MEASURE_WITH_UNIT (LENGTH_MEASURE( 1.000000000000000082E-05 ), #122, 'distance_accuracy_value', 'NONE');
#370 = ORIENTED_EDGE ( 'NONE', *, *, #316, .T. ) ;
#371 = CIRCLE ( 'NONE', #14, 5.772999999999999687 ) ;
#372 = CARTESIAN_POINT ( 'NONE',  ( 3.261536941685984589E-15, -1.226999999999999869, -6.999999999999993783 ) ) ;
#373 = LINE ( 'NONE', #64, #190 ) ;
#374 = CARTESIAN_POINT ( 'NONE',  ( -1.652579016713931321E-16, 0.000000000000000000, 0.000000000000000000 ) ) ;
#375 = FACE_OUTER_BOUND ( 'NONE', #213, .T. ) ;
#376 = VECTOR ( 'NONE', #71, 999.9999999999998863 ) ;
#377 = PRODUCT_CONTEXT ( 'NONE', #192, 'mechanical' ) ;
#378 = LINE ( 'NONE', #8, #67 ) ;
#379 = APPLICATION_PROTOCOL_DEFINITION ( 'draft international standard', 'automotive_design', 1998, #192 ) ;
#380 = DIRECTION ( 'NONE',  ( -3.491481338843133355E-15, 1.000000000000000000, -0.000000000000000000 ) ) ;
#381 = CIRCLE ( 'NONE', #350, 5.772999999999999687 ) ;
#382 = AXIS2_PLACEMENT_3D ( 'NONE', #42, #169, #287 ) ;
#383 = DIRECTION ( 'NONE',  ( 0.000000000000000000, 0.000000000000000000, 1.000000000000000000 ) ) ;
#384 = EDGE_CURVE ( 'NONE', #115, #138, #211, .T. ) ;
#385 = ORIENTED_EDGE ( 'NONE', *, *, #342, .T. ) ;
#386 = CARTESIAN_POINT ( 'NONE',  ( -1.652579016713931321E-16, 0.000000000000000000, 5.772999999999992582 ) ) ;
#387 = LINE ( 'NONE', #309, #126 ) ;
#388 = CARTESIAN_POINT ( 'NONE',  ( 4.118789701089132204E-15, -1.226999999999999869, 0.000000000000000000 ) ) ;
#389 = FACE_OUTER_BOUND ( 'NONE', #21, .T. ) ;
#390 = ORIENTED_EDGE ( 'NONE', *, *, #205, .T. ) ;
#391 = CARTESIAN_POINT ( 'NONE',  ( 2.669824945469256237E-15, -0.8120000000000071605, 0.000000000000000000 ) ) ;
#392 = AXIS2_PLACEMENT_3D ( 'NONE', #391, #170, #27 ) ;
#393 = DIRECTION ( 'NONE',  ( 0.000000000000000000, 0.000000000000000000, -1.000000000000000000 ) ) ;
#394 = EDGE_LOOP ( 'NONE', ( #186, #303, #95, #197 ) ) ;
#395 = EDGE_LOOP ( 'NONE', ( #82, #75, #59, #269 ) ) ;
#396 = DIRECTION ( 'NONE',  ( 3.491481338843133355E-15, -1.000000000000000000, 0.000000000000000000 ) ) ;
#397 = CLOSED_SHELL ( 'NONE', ( #17, #399, #132, #195, #171, #142, #310, #176, #251, #44, #220, #91, #106, #124 ) ) ;
#398 = AXIS2_PLACEMENT_3D ( 'NONE', #388, #83, #76 ) ;
#399 = ADVANCED_FACE ( 'CYL_1', ( #298 ), #145, .T. ) ;
ENDSEC;
END-ISO-10303-21;
