ISO-10303-21;
HEADER;
FILE_DESCRIPTION (( 'STEP AP214' ),
    '1' );
FILE_NAME ('1.35.1140830.STEP',
    '2024-10-11T20:20:55',
    ( '' ),
    ( '' ),
    'SwSTEP 2.0',
    'SolidWorks 2024',
    '' );
FILE_SCHEMA (( 'AUTOMOTIVE_DESIGN' ));
ENDSEC;

DATA;
#1 = CARTESIAN_POINT ( 'NONE',  ( 6.999999999999997335, -1.226999999999974333, 0.000000000000000000 ) ) ;
#2 = EDGE_CURVE ( 'NONE', #372, #106, #254, .T. ) ;
#3 = STYLED_ITEM ( 'NONE', ( #305 ), #392 ) ;
#4 = FACE_OUTER_BOUND ( 'NONE', #66, .T. ) ;
#5 = ORIENTED_EDGE ( 'NONE', *, *, #274, .T. ) ;
#6 = CARTESIAN_POINT ( 'NONE',  ( -3.999999999999999112, -1.387778780781445676E-14, 0.000000000000000000 ) ) ;
#7 = ORIENTED_EDGE ( 'NONE', *, *, #390, .F. ) ;
#8 = PRODUCT_CONTEXT ( 'NONE', #276, 'mechanical' ) ;
#9 = VERTEX_POINT ( 'NONE', #257 ) ;
#10 = CLOSED_SHELL ( 'NONE', ( #199, #195, #222, #238, #158, #140, #130, #335, #52, #323, #377, #394, #177, #124 ) ) ;
#11 = EDGE_CURVE ( 'NONE', #41, #129, #137, .T. ) ;
#12 =( NAMED_UNIT ( * ) PLANE_ANGLE_UNIT ( ) SI_UNIT ( $, .RADIAN. ) );
#13 = ORIENTED_EDGE ( 'NONE', *, *, #22, .T. ) ;
#14 = ORIENTED_EDGE ( 'NONE', *, *, #164, .T. ) ;
#15 = AXIS2_PLACEMENT_3D ( 'NONE', #383, #146, #265 ) ;
#16 = ORIENTED_EDGE ( 'NONE', *, *, #234, .T. ) ;
#17 = VECTOR ( 'NONE', #169, 1000.000000000000114 ) ;
#18 = DIRECTION ( 'NONE',  ( -1.000000000000000000, -3.469446951953614189E-15, 0.000000000000000000 ) ) ;
#19 = DIRECTION ( 'NONE',  ( 3.506284312504802057E-15, -1.000000000000000000, 0.000000000000000000 ) ) ;
#20 = CONICAL_SURFACE ( 'NONE', #243, 3.323499999999999677, 0.7853981633974479459 ) ;
#21 = FACE_OUTER_BOUND ( 'NONE', #94, .T. ) ;
#22 = EDGE_CURVE ( 'NONE', #346, #98, #35, .T. ) ;
#23 = DIRECTION ( 'NONE',  ( -3.506284312504802057E-15, 1.000000000000000000, 0.000000000000000000 ) ) ;
#24 = CARTESIAN_POINT ( 'NONE',  ( -3.323500000000000121, -1.165313591260970946E-14, 4.070113636966228431E-16 ) ) ;
#25 = AXIS2_PLACEMENT_3D ( 'NONE', #138, #347, #308 ) ;
#26 = DIRECTION ( 'NONE',  ( -3.506284312504802057E-15, 1.000000000000000000, 0.000000000000000000 ) ) ;
#27 = VECTOR ( 'NONE', #261, 1000.000000000000114 ) ;
#28 = CARTESIAN_POINT ( 'NONE',  ( 9.275672479555427238E-17, 0.000000000000000000, 0.000000000000000000 ) ) ;
#29 = ORIENTED_EDGE ( 'NONE', *, *, #99, .T. ) ;
#30 = DIRECTION ( 'NONE',  ( 3.506284312504802057E-15, -1.000000000000000000, 0.000000000000000000 ) ) ;
#31 = AXIS2_PLACEMENT_3D ( 'NONE', #273, #100, #93 ) ;
#32 = DIRECTION ( 'NONE',  ( 1.000000000000000000, 3.469446951953614189E-15, 0.000000000000000000 ) ) ;
#33 = VERTEX_POINT ( 'NONE', #339 ) ;
#34 = LINE ( 'NONE', #184, #223 ) ;
#35 = CIRCLE ( 'NONE', #319, 5.772999999999991694 ) ;
#36 = CIRCLE ( 'NONE', #387, 6.999999999999999112 ) ;
#37 = CARTESIAN_POINT ( 'NONE',  ( 0.000000000000000000, 0.000000000000000000, 0.000000000000000000 ) ) ;
#38 = ORIENTED_EDGE ( 'NONE', *, *, #204, .F. ) ;
#39 = AXIS2_PLACEMENT_3D ( 'NONE', #28, #216, #330 ) ;
#40 = LINE ( 'NONE', #340, #83 ) ;
#41 = VERTEX_POINT ( 'NONE', #70 ) ;
#42 = AXIS2_PLACEMENT_3D ( 'NONE', #325, #388, #207 ) ;
#43 = SURFACE_STYLE_FILL_AREA ( #311 ) ;
#44 = EDGE_LOOP ( 'NONE', ( #80, #141 ) ) ;
#45 = PRODUCT_RELATED_PRODUCT_CATEGORY ( 'part', '', ( #380 ) ) ;
#46 = EDGE_LOOP ( 'NONE', ( #272, #367 ) ) ;
#47 = ORIENTED_EDGE ( 'NONE', *, *, #267, .T. ) ;
#48 = CIRCLE ( 'NONE', #304, 3.323500000000000121 ) ;
#49 = FACE_OUTER_BOUND ( 'NONE', #68, .T. ) ;
#50 = DIRECTION ( 'NONE',  ( 1.000000000000000000, 3.605868995621286084E-15, 0.000000000000000000 ) ) ;
#51 = CIRCLE ( 'NONE', #192, 3.999999999999999112 ) ;
#52 = ADVANCED_FACE ( 'CYL_0', ( #314 ), #229, .F. ) ;
#53 = CARTESIAN_POINT ( 'NONE',  ( 1.052812860999396167E-13, -30.00000000000000000, 0.000000000000000000 ) ) ;
#54 = FACE_BOUND ( 'NONE', #285, .T. ) ;
#55 = CARTESIAN_POINT ( 'NONE',  ( 4.000000000000104805, -29.99999999999998579, 0.000000000000000000 ) ) ;
#56 = EDGE_CURVE ( 'NONE', #109, #136, #40, .T. ) ;
#57 = AXIS2_PLACEMENT_3D ( 'NONE', #188, #359, #157 ) ;
#58 = FACE_OUTER_BOUND ( 'NONE', #78, .T. ) ;
#59 = ORIENTED_EDGE ( 'NONE', *, *, #99, .F. ) ;
#60 = VECTOR ( 'NONE', #221, 1000.000000000000000 ) ;
#61 = DIRECTION ( 'NONE',  ( 1.000000000000000000, 3.490586202977252644E-15, 0.000000000000000000 ) ) ;
#62 = VERTEX_POINT ( 'NONE', #255 ) ;
#63 = CARTESIAN_POINT ( 'NONE',  ( 9.275672479555427238E-17, 0.000000000000000000, 0.000000000000000000 ) ) ;
#64 = VERTEX_POINT ( 'NONE', #162 ) ;
#65 = CARTESIAN_POINT ( 'NONE',  ( 2.464758062205051804E-15, -0.6764999999999999902, 0.000000000000000000 ) ) ;
#66 = EDGE_LOOP ( 'NONE', ( #151, #375, #240, #198 ) ) ;
#67 = CARTESIAN_POINT ( 'NONE',  ( 2.464758062205051804E-15, -0.6764999999999999902, 0.000000000000000000 ) ) ;
#68 = EDGE_LOOP ( 'NONE', ( #160, #245 ) ) ;
#69 =( NAMED_UNIT ( * ) SI_UNIT ( $, .STERADIAN. ) SOLID_ANGLE_UNIT ( ) );
#70 = CARTESIAN_POINT ( 'NONE',  ( -6.999999999999988454, -1.227000000000023183, 8.572527594031463329E-16 ) ) ;
#71 = EDGE_CURVE ( 'NONE', #372, #331, #225, .T. ) ;
#72 = AXIS2_PLACEMENT_3D ( 'NONE', #235, #324, #268 ) ;
#73 = ORIENTED_EDGE ( 'NONE', *, *, #152, .F. ) ;
#74 = FACE_OUTER_BOUND ( 'NONE', #364, .T. ) ;
#75 = VERTEX_POINT ( 'NONE', #196 ) ;
#76 = CIRCLE ( 'NONE', #344, 6.999999999999992006 ) ;
#77 = EDGE_CURVE ( 'NONE', #331, #217, #179, .T. ) ;
#78 = EDGE_LOOP ( 'NONE', ( #121, #105, #327, #251 ) ) ;
#79 = AXIS2_PLACEMENT_3D ( 'NONE', #37, #341, #159 ) ;
#80 = ORIENTED_EDGE ( 'NONE', *, *, #280, .T. ) ;
#81 = ADVANCED_BREP_SHAPE_REPRESENTATION ( '1.35.1140830', ( #392, #79 ), #262 ) ;
#82 = DIRECTION ( 'NONE',  ( 3.506284312504802057E-15, -1.000000000000000000, 0.000000000000000000 ) ) ;
#83 = VECTOR ( 'NONE', #193, 1000.000000000000000 ) ;
#84 = DIRECTION ( 'NONE',  ( -0.7071067811865450192, -0.7071067811865500152, 8.659560562354931626E-17 ) ) ;
#85 = EDGE_CURVE ( 'NONE', #217, #106, #135, .T. ) ;
#86 = CARTESIAN_POINT ( 'NONE',  ( -3.999999999999895195, -30.00000000000001421, 4.898587196589412829E-16 ) ) ;
#87 = CONICAL_SURFACE ( 'NONE', #210, 3.323499999999999677, 0.7853981633974479459 ) ;
#88 = DIRECTION ( 'NONE',  ( -3.506284312504802057E-15, 1.000000000000000000, 0.000000000000000000 ) ) ;
#89 = CONICAL_SURFACE ( 'NONE', #112, 7.000000000000000000, 0.7853981633974490562 ) ;
#90 = LINE ( 'NONE', #24, #149 ) ;
#91 = CARTESIAN_POINT ( 'NONE',  ( -3.999999999999895195, -30.00000000000001421, 4.898587196589412829E-16 ) ) ;
#92 = ORIENTED_EDGE ( 'NONE', *, *, #164, .F. ) ;
#93 = DIRECTION ( 'NONE',  ( 1.000000000000000000, 3.506284312504802057E-15, 0.000000000000000000 ) ) ;
#94 = EDGE_LOOP ( 'NONE', ( #163, #101, #29, #286 ) ) ;
#95 = CONICAL_SURFACE ( 'NONE', #218, 4.000000000000000000, 0.7853981633974482790 ) ;
#96 = FACE_BOUND ( 'NONE', #44, .T. ) ;
#97 = CONICAL_SURFACE ( 'NONE', #354, 4.000000000000000000, 0.7853981633974482790 ) ;
#98 = VERTEX_POINT ( 'NONE', #113 ) ;
#99 = EDGE_CURVE ( 'NONE', #331, #372, #48, .T. ) ;
#100 = DIRECTION ( 'NONE',  ( 3.506284312504802057E-15, -1.000000000000000000, 0.000000000000000000 ) ) ;
#101 = ORIENTED_EDGE ( 'NONE', *, *, #116, .T. ) ;
#102 = CARTESIAN_POINT ( 'NONE',  ( -5.772999999999991694, -2.024177933609019300E-14, 7.821206782754561396E-16 ) ) ;
#103 = ORIENTED_EDGE ( 'NONE', *, *, #315, .T. ) ;
#104 = AXIS2_PLACEMENT_3D ( 'NONE', #142, #172, #288 ) ;
#105 = ORIENTED_EDGE ( 'NONE', *, *, #56, .T. ) ;
#106 = VERTEX_POINT ( 'NONE', #55 ) ;
#107 = FILL_AREA_STYLE_COLOUR ( '', #176 ) ;
#108 = ORIENTED_EDGE ( 'NONE', *, *, #11, .T. ) ;
#109 = VERTEX_POINT ( 'NONE', #205 ) ;
#110 = DIRECTION ( 'NONE',  ( 1.000000000000000000, 3.506284312504802057E-15, 0.000000000000000000 ) ) ;
#111 = CARTESIAN_POINT ( 'NONE',  ( -6.999999999999899636, -28.77300000000002456, 0.000000000000000000 ) ) ;
#112 = AXIS2_PLACEMENT_3D ( 'NONE', #290, #23, #115 ) ;
#113 = CARTESIAN_POINT ( 'NONE',  ( 5.772999999999991694, 2.024177933609019300E-14, 0.000000000000000000 ) ) ;
#114 = DIRECTION ( 'NONE',  ( 1.000000000000000000, 3.469446951953614189E-15, 0.000000000000000000 ) ) ;
#115 = DIRECTION ( 'NONE',  ( -1.000000000000000000, -3.469446951953614189E-15, 0.000000000000000000 ) ) ;
#116 = EDGE_CURVE ( 'NONE', #64, #331, #90, .T. ) ;
#117 = DIRECTION ( 'NONE',  ( 3.506284312504802057E-15, -1.000000000000000000, 0.000000000000000000 ) ) ;
#118 = AXIS2_PLACEMENT_3D ( 'NONE', #376, #224, #342 ) ;
#119 = CARTESIAN_POINT ( 'NONE',  ( 1.009790752484962198E-13, -28.77299999999999969, 0.000000000000000000 ) ) ;
#120 = CARTESIAN_POINT ( 'NONE',  ( 3.323500000000102705, -29.32349999999998857, 0.000000000000000000 ) ) ;
#121 = ORIENTED_EDGE ( 'NONE', *, *, #292, .T. ) ;
#122 = VECTOR ( 'NONE', #246, 1000.000000000000114 ) ;
#123 = CARTESIAN_POINT ( 'NONE',  ( 1.052812860999396167E-13, -30.00000000000000000, 0.000000000000000000 ) ) ;
#124 = ADVANCED_FACE ( 'CONE_3', ( #322 ), #386, .T. ) ;
#125 = ORIENTED_EDGE ( 'NONE', *, *, #209, .T. ) ;
#126 = CARTESIAN_POINT ( 'NONE',  ( 9.275672479555427238E-17, 0.000000000000000000, 0.000000000000000000 ) ) ;
#127 = ORIENTED_EDGE ( 'NONE', *, *, #298, .T. ) ;
#128 = CARTESIAN_POINT ( 'NONE',  ( -3.323499999999897092, -29.32350000000000989, 4.484350416777819644E-16 ) ) ;
#129 = VERTEX_POINT ( 'NONE', #357 ) ;
#130 = ADVANCED_FACE ( 'PLANAR_0', ( #54, #49 ), #232, .F. ) ;
#131 = CONICAL_SURFACE ( 'NONE', #397, 5.772999999999991694, 0.7853981633974492782 ) ;
#132 =( NAMED_UNIT ( * ) PLANE_ANGLE_UNIT ( ) SI_UNIT ( $, .RADIAN. ) );
#133 = ORIENTED_EDGE ( 'NONE', *, *, #234, .F. ) ;
#134 = DIRECTION ( 'NONE',  ( 1.000000000000000000, 3.506284312504802057E-15, 0.000000000000000000 ) ) ;
#135 = CIRCLE ( 'NONE', #42, 4.000000000000000000 ) ;
#136 = VERTEX_POINT ( 'NONE', #178 ) ;
#137 = LINE ( 'NONE', #260, #60 ) ;
#138 = CARTESIAN_POINT ( 'NONE',  ( 9.275672479555427238E-17, 0.000000000000000000, 0.000000000000000000 ) ) ;
#139 = ORIENTED_EDGE ( 'NONE', *, *, #368, .F. ) ;
#140 = ADVANCED_FACE ( 'CONE_0', ( #321 ), #95, .F. ) ;
#141 = ORIENTED_EDGE ( 'NONE', *, *, #247, .T. ) ;
#142 = CARTESIAN_POINT ( 'NONE',  ( 9.275672479555427238E-17, 0.000000000000000000, 0.000000000000000000 ) ) ;
#143 = FACE_OUTER_BOUND ( 'NONE', #215, .T. ) ;
#144 = AXIS2_PLACEMENT_3D ( 'NONE', #65, #211, #61 ) ;
#145 = LINE ( 'NONE', #111, #27 ) ;
#146 = DIRECTION ( 'NONE',  ( 3.506284312504802057E-15, -1.000000000000000000, 0.000000000000000000 ) ) ;
#147 = DIRECTION ( 'NONE',  ( 3.506284312504802057E-15, -1.000000000000000000, 0.000000000000000000 ) ) ;
#148 = DIRECTION ( 'NONE',  ( 1.000000000000000000, 3.506284312504802057E-15, 0.000000000000000000 ) ) ;
#149 = VECTOR ( 'NONE', #82, 1000.000000000000000 ) ;
#150 = CARTESIAN_POINT ( 'NONE',  ( 2.464758062205051804E-15, -0.6764999999999999902, 0.000000000000000000 ) ) ;
#151 = ORIENTED_EDGE ( 'NONE', *, *, #56, .F. ) ;
#152 = EDGE_CURVE ( 'NONE', #106, #217, #353, .T. ) ;
#153 = DIRECTION ( 'NONE',  ( 0.7071067811865506814, -0.7071067811865443531, 0.000000000000000000 ) ) ;
#154 = EDGE_LOOP ( 'NONE', ( #59, #399, #270, #242 ) ) ;
#155 = DIRECTION ( 'NONE',  ( -0.7071067811865496822, 0.7071067811865453523, 0.000000000000000000 ) ) ;
#156 = AXIS2_PLACEMENT_3D ( 'NONE', #202, #352, #358 ) ;
#157 = DIRECTION ( 'NONE',  ( 1.000000000000000000, 3.490586202977252644E-15, 0.000000000000000000 ) ) ;
#158 = ADVANCED_FACE ( 'CYL_0', ( #21 ), #175, .F. ) ;
#159 = DIRECTION ( 'NONE',  ( 1.000000000000000000, 0.000000000000000000, 0.000000000000000000 ) ) ;
#160 = ORIENTED_EDGE ( 'NONE', *, *, #204, .T. ) ;
#161 = CIRCLE ( 'NONE', #144, 3.323499999999999677 ) ;
#162 = CARTESIAN_POINT ( 'NONE',  ( -3.323499999999997456, -0.6765000000000116476, 4.070113636966290061E-16 ) ) ;
#163 = ORIENTED_EDGE ( 'NONE', *, *, #292, .F. ) ;
#164 = EDGE_CURVE ( 'NONE', #62, #129, #145, .T. ) ;
#165 = DIRECTION ( 'NONE',  ( 3.506284312504802057E-15, -1.000000000000000000, 0.000000000000000000 ) ) ;
#166 = ORIENTED_EDGE ( 'NONE', *, *, #71, .F. ) ;
#167 = EDGE_LOOP ( 'NONE', ( #103, #191, #219, #189 ) ) ;
#168 = APPLICATION_CONTEXT ( 'automotive_design' ) ;
#169 = DIRECTION ( 'NONE',  ( 0.7071067811865499042, -0.7071067811865451302, 0.000000000000000000 ) ) ;
#170 = AXIS2_PLACEMENT_3D ( 'NONE', #389, #88, #203 ) ;
#171 = EDGE_CURVE ( 'NONE', #9, #62, #252, .T. ) ;
#172 = DIRECTION ( 'NONE',  ( 3.506284312504802057E-15, -1.000000000000000000, 0.000000000000000000 ) ) ;
#173 = CARTESIAN_POINT ( 'NONE',  ( 1.029092847625301195E-13, -29.32349999999999923, 0.000000000000000000 ) ) ;
#174 = CIRCLE ( 'NONE', #15, 5.772999999999999687 ) ;
#175 = CYLINDRICAL_SURFACE ( 'NONE', #104, 3.323500000000000121 ) ;
#176 = COLOUR_RGB ( '',0.7921568627450980005, 0.8196078431372548767, 0.9333333333333333481 ) ;
#177 = ADVANCED_FACE ( 'CYL_1', ( #143 ), #355, .T. ) ;
#178 = CARTESIAN_POINT ( 'NONE',  ( 3.999999999999999112, 1.398620802506300720E-14, 4.898587196589411843E-16 ) ) ;
#179 = LINE ( 'NONE', #86, #206 ) ;
#180 = CIRCLE ( 'NONE', #57, 3.323499999999999677 ) ;
#181 = DIRECTION ( 'NONE',  ( -0.7071067811865457964, -0.7071067811865492381, 8.659560562354941486E-17 ) ) ;
#182 = ORIENTED_EDGE ( 'NONE', *, *, #209, .F. ) ;
#183 = AXIS2_PLACEMENT_3D ( 'NONE', #53, #147, #233 ) ;
#184 = CARTESIAN_POINT ( 'NONE',  ( 5.772999999999991694, 2.024177933609019300E-14, 0.000000000000000000 ) ) ;
#185 = ORIENTED_EDGE ( 'NONE', *, *, #71, .T. ) ;
#186 = DIRECTION ( 'NONE',  ( 3.506284312504802057E-15, -1.000000000000000000, 0.000000000000000000 ) ) ;
#187 = PRODUCT_DEFINITION ( 'UNKNOWN', '', #349, #382 ) ;
#188 = CARTESIAN_POINT ( 'NONE',  ( 2.464758062205051804E-15, -0.6764999999999999902, 0.000000000000000000 ) ) ;
#189 = ORIENTED_EDGE ( 'NONE', *, *, #274, .F. ) ;
#190 = EDGE_LOOP ( 'NONE', ( #306, #166, #284, #282 ) ) ;
#191 = ORIENTED_EDGE ( 'NONE', *, *, #368, .T. ) ;
#192 = AXIS2_PLACEMENT_3D ( 'NONE', #126, #186, #148 ) ;
#193 = DIRECTION ( 'NONE',  ( 0.7071067811865447972, 0.7071067811865502373, 8.659560562354929160E-17 ) ) ;
#194 = UNCERTAINTY_MEASURE_WITH_UNIT (LENGTH_MEASURE( 1.000000000000000082E-05 ), #250, 'distance_accuracy_value', 'NONE');
#195 = ADVANCED_FACE ( 'CYL_1', ( #263 ), #385, .T. ) ;
#196 = CARTESIAN_POINT ( 'NONE',  ( -3.999999999999999112, -1.398620802506300720E-14, 0.000000000000000000 ) ) ;
#197 = CARTESIAN_POINT ( 'NONE',  ( 4.394967576238939326E-15, -1.226999999999998980, 0.000000000000000000 ) ) ;
#198 = ORIENTED_EDGE ( 'NONE', *, *, #247, .F. ) ;
#199 = ADVANCED_FACE ( 'CONE_3', ( #264 ), #89, .T. ) ;
#200 = CARTESIAN_POINT ( 'NONE',  ( 4.000000000000104805, -29.99999999999998579, 0.000000000000000000 ) ) ;
#201 = DIRECTION ( 'NONE',  ( 1.000000000000000000, 3.506284312504802451E-15, 0.000000000000000000 ) ) ;
#202 = CARTESIAN_POINT ( 'NONE',  ( 9.275672479555427238E-17, 0.000000000000000000, 0.000000000000000000 ) ) ;
#203 = DIRECTION ( 'NONE',  ( -1.000000000000000000, -3.506284312504802057E-15, 0.000000000000000000 ) ) ;
#204 = EDGE_CURVE ( 'NONE', #62, #9, #174, .T. ) ;
#205 = CARTESIAN_POINT ( 'NONE',  ( 3.323500000000002341, -0.6764999999999884439, 0.000000000000000000 ) ) ;
#206 = VECTOR ( 'NONE', #84, 1000.000000000000000 ) ;
#207 = DIRECTION ( 'NONE',  ( 1.000000000000000000, 3.469446951953614189E-15, 0.000000000000000000 ) ) ;
#208 = DIRECTION ( 'NONE',  ( 1.000000000000000000, 3.469446951953614583E-15, 0.000000000000000000 ) ) ;
#209 = EDGE_CURVE ( 'NONE', #33, #129, #310, .T. ) ;
#210 = AXIS2_PLACEMENT_3D ( 'NONE', #150, #271, #398 ) ;
#211 = DIRECTION ( 'NONE',  ( 3.506284312504802057E-15, -1.000000000000000000, 0.000000000000000000 ) ) ;
#212 = ORIENTED_EDGE ( 'NONE', *, *, #171, .F. ) ;
#213 = PLANE ( 'NONE',  #313 ) ;
#214 = DIRECTION ( 'NONE',  ( 1.000000000000000000, 3.506284312504802057E-15, 0.000000000000000000 ) ) ;
#215 = EDGE_LOOP ( 'NONE', ( #279, #317, #16, #370 ) ) ;
#216 = DIRECTION ( 'NONE',  ( 3.506284312504802057E-15, -1.000000000000000000, 0.000000000000000000 ) ) ;
#217 = VERTEX_POINT ( 'NONE', #91 ) ;
#218 = AXIS2_PLACEMENT_3D ( 'NONE', #320, #291, #114 ) ;
#219 = ORIENTED_EDGE ( 'NONE', *, *, #267, .F. ) ;
#220 = APPLICATION_PROTOCOL_DEFINITION ( 'draft international standard', 'automotive_design', 1998, #276 ) ;
#221 = DIRECTION ( 'NONE',  ( 3.506284312504802057E-15, -1.000000000000000000, 0.000000000000000000 ) ) ;
#222 = ADVANCED_FACE ( 'CONE_2', ( #332 ), #131, .T. ) ;
#223 = VECTOR ( 'NONE', #153, 1000.000000000000000 ) ;
#224 = DIRECTION ( 'NONE',  ( 3.506284312504802057E-15, -1.000000000000000000, 0.000000000000000000 ) ) ;
#225 = CIRCLE ( 'NONE', #118, 3.323500000000000121 ) ;
#226 = EDGE_LOOP ( 'NONE', ( #212, #127, #125, #92 ) ) ;
#227 = PRESENTATION_LAYER_ASSIGNMENT (  '', '', ( #3 ) ) ;
#228 = SURFACE_SIDE_STYLE ('',( #43 ) ) ;
#229 = CYLINDRICAL_SURFACE ( 'NONE', #237, 3.323500000000000121 ) ;
#230 = VECTOR ( 'NONE', #302, 1000.000000000000000 ) ;
#231 = CARTESIAN_POINT ( 'NONE',  ( 9.275672479555427238E-17, 0.000000000000000000, 0.000000000000000000 ) ) ;
#232 = PLANE ( 'NONE',  #170 ) ;
#233 = DIRECTION ( 'NONE',  ( 1.000000000000000000, 3.469446951953614189E-15, 0.000000000000000000 ) ) ;
#234 = EDGE_CURVE ( 'NONE', #297, #33, #362, .T. ) ;
#235 = CARTESIAN_POINT ( 'NONE',  ( 1.009790752484962198E-13, -28.77299999999999969, 0.000000000000000000 ) ) ;
#236 = DIRECTION ( 'NONE',  ( 1.000000000000000000, 3.131740892390805598E-15, 0.000000000000000000 ) ) ;
#237 = AXIS2_PLACEMENT_3D ( 'NONE', #378, #348, #309 ) ;
#238 = ADVANCED_FACE ( 'CONE_1', ( #58 ), #87, .F. ) ;
#239 = DIRECTION ( 'NONE',  ( -1.000000000000000000, -3.490586202977252644E-15, 0.000000000000000000 ) ) ;
#240 = ORIENTED_EDGE ( 'NONE', *, *, #343, .T. ) ;
#241 = CARTESIAN_POINT ( 'NONE',  ( 7.000000000000100364, -28.77299999999997482, 8.572527594031473190E-16 ) ) ;
#242 = ORIENTED_EDGE ( 'NONE', *, *, #2, .F. ) ;
#243 = AXIS2_PLACEMENT_3D ( 'NONE', #67, #26, #239 ) ;
#244 = LINE ( 'NONE', #326, #365 ) ;
#245 = ORIENTED_EDGE ( 'NONE', *, *, #171, .T. ) ;
#246 = DIRECTION ( 'NONE',  ( 0.7071067811865456854, 0.7071067811865493491, 8.659560562354939021E-17 ) ) ;
#247 = EDGE_CURVE ( 'NONE', #136, #75, #361, .T. ) ;
#248 = DIRECTION ( 'NONE',  ( 3.506284312504802057E-15, -1.000000000000000000, 0.000000000000000000 ) ) ;
#249 = UNCERTAINTY_MEASURE_WITH_UNIT (LENGTH_MEASURE( 1.000000000000000082E-05 ), #281, 'distance_accuracy_value', 'NONE');
#250 =( LENGTH_UNIT ( ) NAMED_UNIT ( * ) SI_UNIT ( .MILLI., .METRE. ) );
#251 = ORIENTED_EDGE ( 'NONE', *, *, #343, .F. ) ;
#252 = CIRCLE ( 'NONE', #283, 5.772999999999999687 ) ;
#253 = VECTOR ( 'NONE', #155, 1000.000000000000000 ) ;
#254 = LINE ( 'NONE', #200, #17 ) ;
#255 = CARTESIAN_POINT ( 'NONE',  ( -5.772999999999894882, -30.00000000000002132, 0.000000000000000000 ) ) ;
#256 = APPLICATION_PROTOCOL_DEFINITION ( 'draft international standard', 'automotive_design', 1998, #168 ) ;
#257 = CARTESIAN_POINT ( 'NONE',  ( 5.773000000000104492, -29.99999999999997868, 7.821206782754570271E-16 ) ) ;
#258 = EDGE_CURVE ( 'NONE', #109, #64, #161, .T. ) ;
#259 = SHAPE_DEFINITION_REPRESENTATION ( #333, #81 ) ;
#260 = CARTESIAN_POINT ( 'NONE',  ( -6.999999999999996447, -2.454399018753360572E-14, 8.572527594031468259E-16 ) ) ;
#261 = DIRECTION ( 'NONE',  ( -0.7071067811865505703, 0.7071067811865444641, 0.000000000000000000 ) ) ;
#262 =( GEOMETRIC_REPRESENTATION_CONTEXT ( 3 ) GLOBAL_UNCERTAINTY_ASSIGNED_CONTEXT ( ( #194 ) ) GLOBAL_UNIT_ASSIGNED_CONTEXT ( ( #250, #12, #69 ) ) REPRESENTATION_CONTEXT ( 'NONE', 'WORKASPACE' ) );
#263 = FACE_OUTER_BOUND ( 'NONE', #300, .T. ) ;
#264 = FACE_OUTER_BOUND ( 'NONE', #226, .T. ) ;
#265 = DIRECTION ( 'NONE',  ( 1.000000000000000000, 3.605868995621286084E-15, 0.000000000000000000 ) ) ;
#266 = CARTESIAN_POINT ( 'NONE',  ( 1.009790752484962198E-13, -28.77299999999999969, 0.000000000000000000 ) ) ;
#267 = EDGE_CURVE ( 'NONE', #297, #41, #334, .T. ) ;
#268 = DIRECTION ( 'NONE',  ( 1.000000000000000000, 3.469446951953614583E-15, 0.000000000000000000 ) ) ;
#269 = DIRECTION ( 'NONE',  ( 1.000000000000000000, 3.500424156881775459E-15, 0.000000000000000000 ) ) ;
#270 = ORIENTED_EDGE ( 'NONE', *, *, #85, .T. ) ;
#271 = DIRECTION ( 'NONE',  ( -3.506284312504802057E-15, 1.000000000000000000, 0.000000000000000000 ) ) ;
#272 = ORIENTED_EDGE ( 'NONE', *, *, #315, .F. ) ;
#273 = CARTESIAN_POINT ( 'NONE',  ( 9.275672479555427238E-17, 0.000000000000000000, 0.000000000000000000 ) ) ;
#274 = EDGE_CURVE ( 'NONE', #98, #297, #34, .T. ) ;
#275 = ORIENTED_EDGE ( 'NONE', *, *, #351, .T. ) ;
#276 = APPLICATION_CONTEXT ( 'automotive_design' ) ;
#277 = AXIS2_PLACEMENT_3D ( 'NONE', #231, #117, #201 ) ;
#278 = CARTESIAN_POINT ( 'NONE',  ( 3.323500000000000121, 1.165313591260970946E-14, 0.000000000000000000 ) ) ;
#279 = ORIENTED_EDGE ( 'NONE', *, *, #11, .F. ) ;
#280 = EDGE_CURVE ( 'NONE', #75, #136, #51, .T. ) ;
#281 =( LENGTH_UNIT ( ) NAMED_UNIT ( * ) SI_UNIT ( .MILLI., .METRE. ) );
#282 = ORIENTED_EDGE ( 'NONE', *, *, #152, .T. ) ;
#283 = AXIS2_PLACEMENT_3D ( 'NONE', #356, #391, #50 ) ;
#284 = ORIENTED_EDGE ( 'NONE', *, *, #2, .T. ) ;
#285 = EDGE_LOOP ( 'NONE', ( #73, #318 ) ) ;
#286 = ORIENTED_EDGE ( 'NONE', *, *, #307, .F. ) ;
#287 = DIRECTION ( 'NONE',  ( 3.506284312504802057E-15, -1.000000000000000000, 0.000000000000000000 ) ) ;
#288 = DIRECTION ( 'NONE',  ( 1.000000000000000000, 3.506284312504802057E-15, 0.000000000000000000 ) ) ;
#289 = DIRECTION ( 'NONE',  ( -3.506284312504802057E-15, 1.000000000000000000, 0.000000000000000000 ) ) ;
#290 = CARTESIAN_POINT ( 'NONE',  ( 1.009790752484962198E-13, -28.77299999999999969, 0.000000000000000000 ) ) ;
#291 = DIRECTION ( 'NONE',  ( 3.506284312504802057E-15, -1.000000000000000000, 0.000000000000000000 ) ) ;
#292 = EDGE_CURVE ( 'NONE', #64, #109, #180, .T. ) ;
#293 = CARTESIAN_POINT ( 'NONE',  ( 6.999999999999996447, 2.454399018753360572E-14, 0.000000000000000000 ) ) ;
#294 = DIRECTION ( 'NONE',  ( 3.506284312504802057E-15, -1.000000000000000000, 0.000000000000000000 ) ) ;
#295 =( GEOMETRIC_REPRESENTATION_CONTEXT ( 3 ) GLOBAL_UNCERTAINTY_ASSIGNED_CONTEXT ( ( #249 ) ) GLOBAL_UNIT_ASSIGNED_CONTEXT ( ( #281, #132, #338 ) ) REPRESENTATION_CONTEXT ( 'NONE', 'WORKASPACE' ) );
#296 = LINE ( 'NONE', #278, #301 ) ;
#297 = VERTEX_POINT ( 'NONE', #1 ) ;
#298 = EDGE_CURVE ( 'NONE', #9, #33, #395, .T. ) ;
#299 = FACE_OUTER_BOUND ( 'NONE', #190, .T. ) ;
#300 = EDGE_LOOP ( 'NONE', ( #47, #108, #182, #133 ) ) ;
#301 = VECTOR ( 'NONE', #30, 1000.000000000000000 ) ;
#302 = DIRECTION ( 'NONE',  ( 3.506284312504802057E-15, -1.000000000000000000, 0.000000000000000000 ) ) ;
#303 = ORIENTED_EDGE ( 'NONE', *, *, #307, .T. ) ;
#304 = AXIS2_PLACEMENT_3D ( 'NONE', #173, #19, #236 ) ;
#305 = PRESENTATION_STYLE_ASSIGNMENT (( #316 ) ) ;
#306 = ORIENTED_EDGE ( 'NONE', *, *, #77, .F. ) ;
#307 = EDGE_CURVE ( 'NONE', #109, #372, #296, .T. ) ;
#308 = DIRECTION ( 'NONE',  ( 1.000000000000000000, 3.506284312504802057E-15, 0.000000000000000000 ) ) ;
#309 = DIRECTION ( 'NONE',  ( 1.000000000000000000, 3.506284312504802057E-15, 0.000000000000000000 ) ) ;
#310 = CIRCLE ( 'NONE', #72, 6.999999999999999112 ) ;
#311 = FILL_AREA_STYLE ('',( #107 ) ) ;
#312 = ORIENTED_EDGE ( 'NONE', *, *, #298, .F. ) ;
#313 = AXIS2_PLACEMENT_3D ( 'NONE', #6, #165, #134 ) ;
#314 = FACE_OUTER_BOUND ( 'NONE', #396, .T. ) ;
#315 = EDGE_CURVE ( 'NONE', #98, #346, #384, .T. ) ;
#316 = SURFACE_STYLE_USAGE ( .BOTH. , #228 ) ;
#317 = ORIENTED_EDGE ( 'NONE', *, *, #390, .T. ) ;
#318 = ORIENTED_EDGE ( 'NONE', *, *, #85, .F. ) ;
#319 = AXIS2_PLACEMENT_3D ( 'NONE', #381, #287, #110 ) ;
#320 = CARTESIAN_POINT ( 'NONE',  ( 1.052812860999396167E-13, -30.00000000000000000, 0.000000000000000000 ) ) ;
#321 = FACE_OUTER_BOUND ( 'NONE', #154, .T. ) ;
#322 = FACE_OUTER_BOUND ( 'NONE', #329, .T. ) ;
#323 = ADVANCED_FACE ( 'CONE_1', ( #4 ), #20, .F. ) ;
#324 = DIRECTION ( 'NONE',  ( 3.506284312504802057E-15, -1.000000000000000000, 0.000000000000000000 ) ) ;
#325 = CARTESIAN_POINT ( 'NONE',  ( 1.052812860999396167E-13, -30.00000000000000000, 0.000000000000000000 ) ) ;
#326 = CARTESIAN_POINT ( 'NONE',  ( -5.772999999999991694, -2.024177933609019300E-14, 7.069885971477659464E-16 ) ) ;
#327 = ORIENTED_EDGE ( 'NONE', *, *, #280, .F. ) ;
#328 = CARTESIAN_POINT ( 'NONE',  ( 4.394967576238939326E-15, -1.226999999999998980, 0.000000000000000000 ) ) ;
#329 = EDGE_LOOP ( 'NONE', ( #312, #38, #14, #275 ) ) ;
#330 = DIRECTION ( 'NONE',  ( 1.000000000000000000, 3.506284312504802057E-15, 0.000000000000000000 ) ) ;
#331 = VERTEX_POINT ( 'NONE', #128 ) ;
#332 = FACE_OUTER_BOUND ( 'NONE', #167, .T. ) ;
#333 = PRODUCT_DEFINITION_SHAPE ( 'NONE', 'NONE',  #187 ) ;
#334 = CIRCLE ( 'NONE', #350, 6.999999999999992006 ) ;
#335 = ADVANCED_FACE ( 'CONE_0', ( #299 ), #97, .F. ) ;
#336 = DIRECTION ( 'NONE',  ( 3.506284312504802057E-15, -1.000000000000000000, 0.000000000000000000 ) ) ;
#337 = ORIENTED_EDGE ( 'NONE', *, *, #258, .F. ) ;
#338 =( NAMED_UNIT ( * ) SI_UNIT ( $, .STERADIAN. ) SOLID_ANGLE_UNIT ( ) );
#339 = CARTESIAN_POINT ( 'NONE',  ( 7.000000000000099476, -28.77299999999997482, 0.000000000000000000 ) ) ;
#340 = CARTESIAN_POINT ( 'NONE',  ( 3.323500000000002341, -0.6764999999999884439, 4.070113636966227938E-16 ) ) ;
#341 = DIRECTION ( 'NONE',  ( 0.000000000000000000, 0.000000000000000000, 1.000000000000000000 ) ) ;
#342 = DIRECTION ( 'NONE',  ( 1.000000000000000000, 3.131740892390805598E-15, 0.000000000000000000 ) ) ;
#343 = EDGE_CURVE ( 'NONE', #64, #75, #393, .T. ) ;
#344 = AXIS2_PLACEMENT_3D ( 'NONE', #197, #371, #345 ) ;
#345 = DIRECTION ( 'NONE',  ( 1.000000000000000000, 3.500424156881775459E-15, 0.000000000000000000 ) ) ;
#346 = VERTEX_POINT ( 'NONE', #102 ) ;
#347 = DIRECTION ( 'NONE',  ( 3.506284312504802057E-15, -1.000000000000000000, 0.000000000000000000 ) ) ;
#348 = DIRECTION ( 'NONE',  ( 3.506284312504802057E-15, -1.000000000000000000, 0.000000000000000000 ) ) ;
#349 = PRODUCT_DEFINITION_FORMATION_WITH_SPECIFIED_SOURCE ( 'ANY', '', #380, .NOT_KNOWN. ) ;
#350 = AXIS2_PLACEMENT_3D ( 'NONE', #328, #336, #269 ) ;
#351 = EDGE_CURVE ( 'NONE', #129, #33, #36, .T. ) ;
#352 = DIRECTION ( 'NONE',  ( 3.506284312504802057E-15, -1.000000000000000000, 0.000000000000000000 ) ) ;
#353 = CIRCLE ( 'NONE', #183, 4.000000000000000000 ) ;
#354 = AXIS2_PLACEMENT_3D ( 'NONE', #123, #294, #32 ) ;
#355 = CYLINDRICAL_SURFACE ( 'NONE', #277, 6.999999999999996447 ) ;
#356 = CARTESIAN_POINT ( 'NONE',  ( 1.052812860999396167E-13, -30.00000000000000000, 0.000000000000000000 ) ) ;
#357 = CARTESIAN_POINT ( 'NONE',  ( -6.999999999999898748, -28.77300000000002456, 8.572527594031470232E-16 ) ) ;
#358 = DIRECTION ( 'NONE',  ( 1.000000000000000000, 3.506284312504802451E-15, 0.000000000000000000 ) ) ;
#359 = DIRECTION ( 'NONE',  ( 3.506284312504802057E-15, -1.000000000000000000, 0.000000000000000000 ) ) ;
#360 = ORIENTED_EDGE ( 'NONE', *, *, #116, .F. ) ;
#361 = CIRCLE ( 'NONE', #31, 3.999999999999999112 ) ;
#362 = LINE ( 'NONE', #293, #230 ) ;
#363 = FACE_OUTER_BOUND ( 'NONE', #46, .T. ) ;
#364 = EDGE_LOOP ( 'NONE', ( #139, #13, #5, #7 ) ) ;
#365 = VECTOR ( 'NONE', #181, 1000.000000000000000 ) ;
#366 = DIRECTION ( 'NONE',  ( 3.506284312504802057E-15, -1.000000000000000000, 0.000000000000000000 ) ) ;
#367 = ORIENTED_EDGE ( 'NONE', *, *, #22, .F. ) ;
#368 = EDGE_CURVE ( 'NONE', #346, #41, #244, .T. ) ;
#369 = CARTESIAN_POINT ( 'NONE',  ( -3.323499999999997012, -0.6765000000000116476, 0.000000000000000000 ) ) ;
#370 = ORIENTED_EDGE ( 'NONE', *, *, #351, .F. ) ;
#371 = DIRECTION ( 'NONE',  ( 3.506284312504802057E-15, -1.000000000000000000, 0.000000000000000000 ) ) ;
#372 = VERTEX_POINT ( 'NONE', #120 ) ;
#373 = AXIS2_PLACEMENT_3D ( 'NONE', #266, #289, #18 ) ;
#374 = CONICAL_SURFACE ( 'NONE', #25, 5.772999999999991694, 0.7853981633974492782 ) ;
#375 = ORIENTED_EDGE ( 'NONE', *, *, #258, .T. ) ;
#376 = CARTESIAN_POINT ( 'NONE',  ( 1.029092847625301195E-13, -29.32349999999999923, 0.000000000000000000 ) ) ;
#377 = ADVANCED_FACE ( 'PLANAR_1', ( #363, #96 ), #213, .F. ) ;
#378 = CARTESIAN_POINT ( 'NONE',  ( 9.275672479555427238E-17, 0.000000000000000000, 0.000000000000000000 ) ) ;
#379 = MECHANICAL_DESIGN_GEOMETRIC_PRESENTATION_REPRESENTATION (  '', ( #3 ), #295 ) ;
#380 = PRODUCT ( '1.35.1140830', '1.35.1140830', '', ( #8 ) ) ;
#381 = CARTESIAN_POINT ( 'NONE',  ( 9.275672479555427238E-17, 0.000000000000000000, 0.000000000000000000 ) ) ;
#382 = PRODUCT_DEFINITION_CONTEXT ( 'detailed design', #168, 'design' ) ;
#383 = CARTESIAN_POINT ( 'NONE',  ( 1.052812860999396167E-13, -30.00000000000000000, 0.000000000000000000 ) ) ;
#384 = CIRCLE ( 'NONE', #39, 5.772999999999991694 ) ;
#385 = CYLINDRICAL_SURFACE ( 'NONE', #156, 6.999999999999996447 ) ;
#386 = CONICAL_SURFACE ( 'NONE', #373, 7.000000000000000000, 0.7853981633974490562 ) ;
#387 = AXIS2_PLACEMENT_3D ( 'NONE', #119, #366, #208 ) ;
#388 = DIRECTION ( 'NONE',  ( 3.506284312504802057E-15, -1.000000000000000000, 0.000000000000000000 ) ) ;
#389 = CARTESIAN_POINT ( 'NONE',  ( -5.772999999999894882, -30.00000000000002132, 0.000000000000000000 ) ) ;
#390 = EDGE_CURVE ( 'NONE', #41, #297, #76, .T. ) ;
#391 = DIRECTION ( 'NONE',  ( 3.506284312504802057E-15, -1.000000000000000000, 0.000000000000000000 ) ) ;
#392 = MANIFOLD_SOLID_BREP ( 'Body-Move/Copy2', #10 ) ;
#393 = LINE ( 'NONE', #369, #253 ) ;
#394 = ADVANCED_FACE ( 'CONE_2', ( #74 ), #374, .T. ) ;
#395 = LINE ( 'NONE', #241, #122 ) ;
#396 = EDGE_LOOP ( 'NONE', ( #360, #337, #303, #185 ) ) ;
#397 = AXIS2_PLACEMENT_3D ( 'NONE', #63, #248, #214 ) ;
#398 = DIRECTION ( 'NONE',  ( -1.000000000000000000, -3.490586202977252644E-15, 0.000000000000000000 ) ) ;
#399 = ORIENTED_EDGE ( 'NONE', *, *, #77, .T. ) ;
ENDSEC;
END-ISO-10303-21;
