ISO-10303-21;
HEADER;
FILE_DESCRIPTION (( 'STEP AP214' ),
    '1' );
FILE_NAME ('1.35.1140815.STEP',
    '2024-10-11T20:20:35',
    ( '' ),
    ( '' ),
    'SwSTEP 2.0',
    'SolidWorks 2024',
    '' );
FILE_SCHEMA (( 'AUTOMOTIVE_DESIGN' ));
ENDSEC;

DATA;
#1 = ADVANCED_FACE ( 'CYL_1', ( #373 ), #264, .T. ) ;
#2 = CIRCLE ( 'NONE', #56, 4.000000000000000000 ) ;
#3 = CARTESIAN_POINT ( 'NONE',  ( -5.772999999999992582, -2.032723690303900687E-14, 7.069885971477659464E-16 ) ) ;
#4 = EDGE_CURVE ( 'NONE', #322, #89, #63, .T. ) ;
#5 = DIRECTION ( 'NONE',  ( 3.521087286166470758E-15, -1.000000000000000000, 0.000000000000000000 ) ) ;
#6 =( LENGTH_UNIT ( ) NAMED_UNIT ( * ) SI_UNIT ( .MILLI., .METRE. ) );
#7 = CONICAL_SURFACE ( 'NONE', #8, 5.772999999999991694, 0.7853981633974492782 ) ;
#8 = AXIS2_PLACEMENT_3D ( 'NONE', #274, #299, #121 ) ;
#9 = CARTESIAN_POINT ( 'NONE',  ( 1.772668437570158681E-15, -0.6764999999999991021, 0.000000000000000000 ) ) ;
#10 = DIRECTION ( 'NONE',  ( 3.521087286166470758E-15, -1.000000000000000000, 0.000000000000000000 ) ) ;
#11 = PRESENTATION_STYLE_ASSIGNMENT (( #289 ) ) ;
#12 = ORIENTED_EDGE ( 'NONE', *, *, #134, .T. ) ;
#13 = CARTESIAN_POINT ( 'NONE',  ( 3.323500000000001453, -0.6764999999999874447, 0.000000000000000000 ) ) ;
#14 = ADVANCED_FACE ( 'CONE_3', ( #102 ), #372, .T. ) ;
#15 = FACE_OUTER_BOUND ( 'NONE', #125, .T. ) ;
#16 = CARTESIAN_POINT ( 'NONE',  ( 5.220696218097560658E-14, -15.00000000000000000, 0.000000000000000000 ) ) ;
#17 = LINE ( 'NONE', #302, #128 ) ;
#18 = ORIENTED_EDGE ( 'NONE', *, *, #344, .T. ) ;
#19 = CARTESIAN_POINT ( 'NONE',  ( -5.772999999999947285, -15.00000000000001954, 0.000000000000000000 ) ) ;
#20 = EDGE_CURVE ( 'NONE', #397, #250, #43, .T. ) ;
#21 = CARTESIAN_POINT ( 'NONE',  ( -3.323500000000000565, -1.170233359557426582E-14, 4.070113636966228431E-16 ) ) ;
#22 = ORIENTED_EDGE ( 'NONE', *, *, #141, .T. ) ;
#23 = AXIS2_PLACEMENT_3D ( 'NONE', #72, #70, #38 ) ;
#24 = CARTESIAN_POINT ( 'NONE',  ( 1.772668437570158681E-15, -0.6764999999999991021, 0.000000000000000000 ) ) ;
#25 = ORIENTED_EDGE ( 'NONE', *, *, #126, .F. ) ;
#26 = PRODUCT_DEFINITION_SHAPE ( 'NONE', 'NONE',  #268 ) ;
#27 = FACE_OUTER_BOUND ( 'NONE', #92, .T. ) ;
#28 = APPLICATION_PROTOCOL_DEFINITION ( 'draft international standard', 'automotive_design', 1998, #324 ) ;
#29 = ORIENTED_EDGE ( 'NONE', *, *, #81, .F. ) ;
#30 = DIRECTION ( 'NONE',  ( 1.000000000000000000, 3.469446951953614189E-15, 0.000000000000000000 ) ) ;
#31 = VERTEX_POINT ( 'NONE', #345 ) ;
#32 = CIRCLE ( 'NONE', #182, 6.999999999999992895 ) ;
#33 = ORIENTED_EDGE ( 'NONE', *, *, #344, .F. ) ;
#34 = CYLINDRICAL_SURFACE ( 'NONE', #124, 3.323500000000000121 ) ;
#35 = CIRCLE ( 'NONE', #140, 6.999999999999998224 ) ;
#36 = DIRECTION ( 'NONE',  ( 1.000000000000000000, 3.531401361809932390E-15, 0.000000000000000000 ) ) ;
#37 = DIRECTION ( 'NONE',  ( 1.000000000000000000, 3.521087286166470758E-15, 0.000000000000000000 ) ) ;
#38 = DIRECTION ( 'NONE',  ( 1.000000000000000000, 3.469446951953614189E-15, 0.000000000000000000 ) ) ;
#39 = AXIS2_PLACEMENT_3D ( 'NONE', #379, #5, #263 ) ;
#40 = AXIS2_PLACEMENT_3D ( 'NONE', #42, #232, #342 ) ;
#41 = DIRECTION ( 'NONE',  ( 1.000000000000000000, 3.521087286166470758E-15, 0.000000000000000000 ) ) ;
#42 = CARTESIAN_POINT ( 'NONE',  ( 5.220696218097560658E-14, -15.00000000000000000, 0.000000000000000000 ) ) ;
#43 = LINE ( 'NONE', #3, #286 ) ;
#44 = SURFACE_SIDE_STYLE ('',( #377 ) ) ;
#45 = ORIENTED_EDGE ( 'NONE', *, *, #223, .F. ) ;
#46 = DIRECTION ( 'NONE',  ( -0.7071067811865450192, -0.7071067811865500152, 8.659560562354931626E-17 ) ) ;
#47 = VECTOR ( 'NONE', #180, 1000.000000000000000 ) ;
#48 = CARTESIAN_POINT ( 'NONE',  ( 3.999999999999998224, 1.398620802506300720E-14, 4.898587196589411843E-16 ) ) ;
#49 = EDGE_LOOP ( 'NONE', ( #25, #214, #123, #154 ) ) ;
#50 = DIRECTION ( 'NONE',  ( -3.521087286166470758E-15, 1.000000000000000000, 0.000000000000000000 ) ) ;
#51 = CIRCLE ( 'NONE', #332, 3.999999999999999112 ) ;
#52 = DIRECTION ( 'NONE',  ( 1.000000000000000000, 3.521087286166470758E-15, 0.000000000000000000 ) ) ;
#53 = DIRECTION ( 'NONE',  ( -1.000000000000000000, -3.523208503939656741E-15, 0.000000000000000000 ) ) ;
#54 = EDGE_LOOP ( 'NONE', ( #331, #295, #390, #221 ) ) ;
#55 = CARTESIAN_POINT ( 'NONE',  ( 4.788658808084935128E-14, -13.77299999999999969, 0.000000000000000000 ) ) ;
#56 = AXIS2_PLACEMENT_3D ( 'NONE', #243, #78, #145 ) ;
#57 = ORIENTED_EDGE ( 'NONE', *, *, #67, .T. ) ;
#58 = DIRECTION ( 'NONE',  ( 1.000000000000000000, 3.521087286166470758E-15, 0.000000000000000000 ) ) ;
#59 = EDGE_CURVE ( 'NONE', #287, #61, #74, .T. ) ;
#60 = EDGE_LOOP ( 'NONE', ( #18, #306 ) ) ;
#61 = VERTEX_POINT ( 'NONE', #257 ) ;
#62 =( GEOMETRIC_REPRESENTATION_CONTEXT ( 3 ) GLOBAL_UNCERTAINTY_ASSIGNED_CONTEXT ( ( #227 ) ) GLOBAL_UNIT_ASSIGNED_CONTEXT ( ( #174, #247, #171 ) ) REPRESENTATION_CONTEXT ( 'NONE', 'WORKASPACE' ) );
#63 = CIRCLE ( 'NONE', #371, 3.323499999999999677 ) ;
#64 = CARTESIAN_POINT ( 'NONE',  ( 4.982494663188398621E-14, -14.32349999999999923, 0.000000000000000000 ) ) ;
#65 = AXIS2_PLACEMENT_3D ( 'NONE', #362, #278, #30 ) ;
#66 = EDGE_CURVE ( 'NONE', #89, #365, #98, .T. ) ;
#67 = EDGE_CURVE ( 'NONE', #31, #93, #167, .T. ) ;
#68 = VECTOR ( 'NONE', #237, 1000.000000000000000 ) ;
#69 = CARTESIAN_POINT ( 'NONE',  ( 6.999999999999997335, -1.226999999999975222, 0.000000000000000000 ) ) ;
#70 = DIRECTION ( 'NONE',  ( 3.521087286166470758E-15, -1.000000000000000000, 0.000000000000000000 ) ) ;
#71 = DIRECTION ( 'NONE',  ( 1.000000000000000000, 3.523208503939656741E-15, 0.000000000000000000 ) ) ;
#72 = CARTESIAN_POINT ( 'NONE',  ( 5.220696218097560658E-14, -15.00000000000000000, 0.000000000000000000 ) ) ;
#73 = DIRECTION ( 'NONE',  ( 1.000000000000000000, 3.469446951953614978E-15, 0.000000000000000000 ) ) ;
#74 = CIRCLE ( 'NONE', #242, 6.999999999999998224 ) ;
#75 = ADVANCED_FACE ( 'CYL_0', ( #231 ), #290, .F. ) ;
#76 = DIRECTION ( 'NONE',  ( 3.521087286166470758E-15, -1.000000000000000000, 0.000000000000000000 ) ) ;
#77 = EDGE_LOOP ( 'NONE', ( #270, #144, #94, #45 ) ) ;
#78 = DIRECTION ( 'NONE',  ( 3.521087286166470758E-15, -1.000000000000000000, 0.000000000000000000 ) ) ;
#79 = DIRECTION ( 'NONE',  ( 0.000000000000000000, 0.000000000000000000, 1.000000000000000000 ) ) ;
#80 = FACE_OUTER_BOUND ( 'NONE', #156, .T. ) ;
#81 = EDGE_CURVE ( 'NONE', #238, #254, #209, .T. ) ;
#82 = CYLINDRICAL_SURFACE ( 'NONE', #217, 6.999999999999996447 ) ;
#83 = CONICAL_SURFACE ( 'NONE', #96, 3.323499999999999677, 0.7853981633974485010 ) ;
#84 = LINE ( 'NONE', #275, #137 ) ;
#85 = CARTESIAN_POINT ( 'NONE',  ( 7.000000000000047073, -13.77299999999997659, 8.572527594031472204E-16 ) ) ;
#86 = EDGE_LOOP ( 'NONE', ( #245, #357, #361, #304 ) ) ;
#87 = LINE ( 'NONE', #85, #368 ) ;
#88 = PRODUCT_CONTEXT ( 'NONE', #324, 'mechanical' ) ;
#89 = VERTEX_POINT ( 'NONE', #13 ) ;
#90 = LINE ( 'NONE', #185, #388 ) ;
#91 = ADVANCED_FACE ( 'CONE_3', ( #229 ), #292, .T. ) ;
#92 = EDGE_LOOP ( 'NONE', ( #307, #363, #236, #280 ) ) ;
#93 = VERTEX_POINT ( 'NONE', #228 ) ;
#94 = ORIENTED_EDGE ( 'NONE', *, *, #329, .T. ) ;
#95 = VECTOR ( 'NONE', #318, 1000.000000000000000 ) ;
#96 = AXIS2_PLACEMENT_3D ( 'NONE', #321, #142, #53 ) ;
#97 = UNCERTAINTY_MEASURE_WITH_UNIT (LENGTH_MEASURE( 1.000000000000000082E-05 ), #6, 'distance_accuracy_value', 'NONE');
#98 = LINE ( 'NONE', #288, #95 ) ;
#99 = DIRECTION ( 'NONE',  ( 3.521087286166470758E-15, -1.000000000000000000, 0.000000000000000000 ) ) ;
#100 =( NAMED_UNIT ( * ) SI_UNIT ( $, .STERADIAN. ) SOLID_ANGLE_UNIT ( ) );
#101 = DIRECTION ( 'NONE',  ( -3.521087286166470758E-15, 1.000000000000000000, 0.000000000000000000 ) ) ;
#102 = FACE_OUTER_BOUND ( 'NONE', #334, .T. ) ;
#103 = ORIENTED_EDGE ( 'NONE', *, *, #226, .F. ) ;
#104 = VECTOR ( 'NONE', #203, 1000.000000000000114 ) ;
#105 = FACE_OUTER_BOUND ( 'NONE', #335, .T. ) ;
#106 = ORIENTED_EDGE ( 'NONE', *, *, #395, .T. ) ;
#107 = DIRECTION ( 'NONE',  ( -1.000000000000000000, -3.523208503939656741E-15, 0.000000000000000000 ) ) ;
#108 = ADVANCED_FACE ( 'CYL_0', ( #105 ), #34, .F. ) ;
#109 = ADVANCED_BREP_SHAPE_REPRESENTATION ( '1.35.1140815', ( #355, #255 ), #62 ) ;
#110 = DIRECTION ( 'NONE',  ( 1.000000000000000000, 3.521087286166471152E-15, 0.000000000000000000 ) ) ;
#111 = COLOUR_RGB ( '',0.7921568627450980005, 0.8196078431372548767, 0.9333333333333333481 ) ;
#112 = DIRECTION ( 'NONE',  ( 1.000000000000000000, 0.000000000000000000, 0.000000000000000000 ) ) ;
#113 = AXIS2_PLACEMENT_3D ( 'NONE', #258, #376, #370 ) ;
#114 = DIRECTION ( 'NONE',  ( 3.521087286166470758E-15, -1.000000000000000000, 0.000000000000000000 ) ) ;
#115 = AXIS2_PLACEMENT_3D ( 'NONE', #16, #265, #350 ) ;
#116 = CARTESIAN_POINT ( 'NONE',  ( 5.772999999999990806, 2.032723690303900687E-14, 0.000000000000000000 ) ) ;
#117 = ORIENTED_EDGE ( 'NONE', *, *, #369, .T. ) ;
#118 = CARTESIAN_POINT ( 'NONE',  ( -3.323499999999997900, -0.6765000000000108704, 0.000000000000000000 ) ) ;
#119 = DIRECTION ( 'NONE',  ( 1.000000000000000000, 3.521087286166470758E-15, 0.000000000000000000 ) ) ;
#120 = ORIENTED_EDGE ( 'NONE', *, *, #193, .F. ) ;
#121 = DIRECTION ( 'NONE',  ( 1.000000000000000000, 3.521087286166470758E-15, 0.000000000000000000 ) ) ;
#122 = VECTOR ( 'NONE', #235, 1000.000000000000000 ) ;
#123 = ORIENTED_EDGE ( 'NONE', *, *, #358, .T. ) ;
#124 = AXIS2_PLACEMENT_3D ( 'NONE', #285, #234, #41 ) ;
#125 = EDGE_LOOP ( 'NONE', ( #266, #12, #152, #184 ) ) ;
#126 = EDGE_CURVE ( 'NONE', #159, #31, #202, .T. ) ;
#127 = EDGE_LOOP ( 'NONE', ( #262, #178, #57, #338 ) ) ;
#128 = VECTOR ( 'NONE', #206, 1000.000000000000000 ) ;
#129 = AXIS2_PLACEMENT_3D ( 'NONE', #64, #343, #375 ) ;
#130 = CARTESIAN_POINT ( 'NONE',  ( -4.000000000000000000, -1.409462824231155764E-14, 0.000000000000000000 ) ) ;
#131 = CARTESIAN_POINT ( 'NONE',  ( 1.772668437570158681E-15, -0.6764999999999991021, 0.000000000000000000 ) ) ;
#132 = CONICAL_SURFACE ( 'NONE', #65, 4.000000000000000000, 0.7853981633974482790 ) ;
#133 = CARTESIAN_POINT ( 'NONE',  ( 4.788658808084935128E-14, -13.77299999999999969, 0.000000000000000000 ) ) ;
#134 = EDGE_CURVE ( 'NONE', #89, #322, #398, .T. ) ;
#135 = VERTEX_POINT ( 'NONE', #130 ) ;
#136 = VERTEX_POINT ( 'NONE', #225 ) ;
#137 = VECTOR ( 'NONE', #150, 1000.000000000000000 ) ;
#138 = DIRECTION ( 'NONE',  ( -1.000000000000000000, -3.469446951953614583E-15, 0.000000000000000000 ) ) ;
#139 = EDGE_LOOP ( 'NONE', ( #103, #346 ) ) ;
#140 = AXIS2_PLACEMENT_3D ( 'NONE', #55, #183, #359 ) ;
#141 = EDGE_CURVE ( 'NONE', #365, #135, #353, .T. ) ;
#142 = DIRECTION ( 'NONE',  ( -3.521087286166470758E-15, 1.000000000000000000, 0.000000000000000000 ) ) ;
#143 = CARTESIAN_POINT ( 'NONE',  ( -6.999999999999990230, -1.227000000000024516, 8.572527594031465301E-16 ) ) ;
#144 = ORIENTED_EDGE ( 'NONE', *, *, #151, .T. ) ;
#145 = DIRECTION ( 'NONE',  ( 1.000000000000000000, 3.469446951953614189E-15, 0.000000000000000000 ) ) ;
#146 = VERTEX_POINT ( 'NONE', #69 ) ;
#147 = AXIS2_PLACEMENT_3D ( 'NONE', #199, #76, #283 ) ;
#148 = PLANE ( 'NONE',  #308 ) ;
#149 = AXIS2_PLACEMENT_3D ( 'NONE', #320, #323, #391 ) ;
#150 = DIRECTION ( 'NONE',  ( 3.521087286166470758E-15, -1.000000000000000000, 0.000000000000000000 ) ) ;
#151 = EDGE_CURVE ( 'NONE', #250, #146, #32, .T. ) ;
#152 = ORIENTED_EDGE ( 'NONE', *, *, #207, .T. ) ;
#153 = FACE_OUTER_BOUND ( 'NONE', #60, .T. ) ;
#154 = ORIENTED_EDGE ( 'NONE', *, *, #67, .F. ) ;
#155 = CARTESIAN_POINT ( 'NONE',  ( -6.093471115214561674E-16, 0.000000000000000000, 0.000000000000000000 ) ) ;
#156 = EDGE_LOOP ( 'NONE', ( #230, #216, #366, #166 ) ) ;
#157 = EDGE_CURVE ( 'NONE', #135, #365, #51, .T. ) ;
#158 = VECTOR ( 'NONE', #46, 1000.000000000000000 ) ;
#159 = VERTEX_POINT ( 'NONE', #352 ) ;
#160 = DIRECTION ( 'NONE',  ( 3.521087286166470758E-15, -1.000000000000000000, 0.000000000000000000 ) ) ;
#161 = VECTOR ( 'NONE', #173, 1000.000000000000000 ) ;
#162 = DIRECTION ( 'NONE',  ( 3.521087286166470758E-15, -1.000000000000000000, 0.000000000000000000 ) ) ;
#163 =( GEOMETRIC_REPRESENTATION_CONTEXT ( 3 ) GLOBAL_UNCERTAINTY_ASSIGNED_CONTEXT ( ( #97 ) ) GLOBAL_UNIT_ASSIGNED_CONTEXT ( ( #6, #168, #100 ) ) REPRESENTATION_CONTEXT ( 'NONE', 'WORKASPACE' ) );
#164 = CARTESIAN_POINT ( 'NONE',  ( -6.093471115214561674E-16, 0.000000000000000000, 0.000000000000000000 ) ) ;
#165 = CARTESIAN_POINT ( 'NONE',  ( 4.788658808084935128E-14, -13.77299999999999969, 0.000000000000000000 ) ) ;
#166 = ORIENTED_EDGE ( 'NONE', *, *, #207, .F. ) ;
#167 = LINE ( 'NONE', #261, #104 ) ;
#168 =( NAMED_UNIT ( * ) PLANE_ANGLE_UNIT ( ) SI_UNIT ( $, .RADIAN. ) );
#169 = DIRECTION ( 'NONE',  ( 3.521087286166470758E-15, -1.000000000000000000, 0.000000000000000000 ) ) ;
#170 = APPLICATION_CONTEXT ( 'automotive_design' ) ;
#171 =( NAMED_UNIT ( * ) SI_UNIT ( $, .STERADIAN. ) SOLID_ANGLE_UNIT ( ) );
#172 = EDGE_CURVE ( 'NONE', #250, #61, #294, .T. ) ;
#173 = DIRECTION ( 'NONE',  ( -0.7071067811865501263, 0.7071067811865449082, 0.000000000000000000 ) ) ;
#174 =( LENGTH_UNIT ( ) NAMED_UNIT ( * ) SI_UNIT ( .MILLI., .METRE. ) );
#175 = EDGE_LOOP ( 'NONE', ( #273, #33, #253, #220 ) ) ;
#176 = PLANE ( 'NONE',  #210 ) ;
#177 = CARTESIAN_POINT ( 'NONE',  ( -6.093471115214561674E-16, 0.000000000000000000, 0.000000000000000000 ) ) ;
#178 = ORIENTED_EDGE ( 'NONE', *, *, #256, .F. ) ;
#179 = FACE_OUTER_BOUND ( 'NONE', #127, .T. ) ;
#180 = DIRECTION ( 'NONE',  ( 3.521087286166470758E-15, -1.000000000000000000, 0.000000000000000000 ) ) ;
#181 = EDGE_LOOP ( 'NONE', ( #279, #106, #117, #392 ) ) ;
#182 = AXIS2_PLACEMENT_3D ( 'NONE', #196, #313, #36 ) ;
#183 = DIRECTION ( 'NONE',  ( 3.521087286166470758E-15, -1.000000000000000000, 0.000000000000000000 ) ) ;
#184 = ORIENTED_EDGE ( 'NONE', *, *, #141, .F. ) ;
#185 = CARTESIAN_POINT ( 'NONE',  ( 6.999999999999995559, 2.464761100316528426E-14, 0.000000000000000000 ) ) ;
#186 = EDGE_LOOP ( 'NONE', ( #120, #276 ) ) ;
#187 = EDGE_CURVE ( 'NONE', #159, #204, #240, .T. ) ;
#188 = CIRCLE ( 'NONE', #351, 5.772999999999991694 ) ;
#189 = ORIENTED_EDGE ( 'NONE', *, *, #364, .T. ) ;
#190 = CIRCLE ( 'NONE', #149, 3.323500000000000121 ) ;
#191 = CIRCLE ( 'NONE', #40, 5.772999999999999687 ) ;
#192 = DIRECTION ( 'NONE',  ( -0.7071067811865457964, -0.7071067811865492381, 8.659560562354941486E-17 ) ) ;
#193 = EDGE_CURVE ( 'NONE', #93, #204, #2, .T. ) ;
#194 = AXIS2_PLACEMENT_3D ( 'NONE', #387, #291, #205 ) ;
#195 = PRODUCT_DEFINITION_CONTEXT ( 'detailed design', #170, 'design' ) ;
#196 = CARTESIAN_POINT ( 'NONE',  ( 3.711026988604804456E-15, -1.226999999999999869, 0.000000000000000000 ) ) ;
#197 = FILL_AREA_STYLE_COLOUR ( '', #111 ) ;
#198 = ADVANCED_FACE ( 'CYL_1', ( #208 ), #82, .T. ) ;
#199 = CARTESIAN_POINT ( 'NONE',  ( 5.220696218097560658E-14, -15.00000000000000000, 0.000000000000000000 ) ) ;
#200 = PRODUCT_DEFINITION_FORMATION_WITH_SPECIFIED_SOURCE ( 'ANY', '', #367, .NOT_KNOWN. ) ;
#201 = DIRECTION ( 'NONE',  ( 3.521087286166470758E-15, -1.000000000000000000, 0.000000000000000000 ) ) ;
#202 = CIRCLE ( 'NONE', #129, 3.323500000000000121 ) ;
#203 = DIRECTION ( 'NONE',  ( 0.7071067811865499042, -0.7071067811865451302, 0.000000000000000000 ) ) ;
#204 = VERTEX_POINT ( 'NONE', #213 ) ;
#205 = DIRECTION ( 'NONE',  ( 1.000000000000000000, 3.521087286166470758E-15, 0.000000000000000000 ) ) ;
#206 = DIRECTION ( 'NONE',  ( -0.7071067811865501263, 0.7071067811865449082, 0.000000000000000000 ) ) ;
#207 = EDGE_CURVE ( 'NONE', #322, #135, #386, .T. ) ;
#208 = FACE_OUTER_BOUND ( 'NONE', #86, .T. ) ;
#209 = CIRCLE ( 'NONE', #147, 5.772999999999999687 ) ;
#210 = AXIS2_PLACEMENT_3D ( 'NONE', #356, #50, #269 ) ;
#211 = FACE_OUTER_BOUND ( 'NONE', #139, .T. ) ;
#212 = LINE ( 'NONE', #116, #122 ) ;
#213 = CARTESIAN_POINT ( 'NONE',  ( -3.999999999999948042, -15.00000000000001421, 4.898587196589412829E-16 ) ) ;
#214 = ORIENTED_EDGE ( 'NONE', *, *, #187, .T. ) ;
#215 = DIRECTION ( 'NONE',  ( 0.7071067811865452413, 0.7071067811865497932, 8.659560562354935323E-17 ) ) ;
#216 = ORIENTED_EDGE ( 'NONE', *, *, #66, .T. ) ;
#217 = AXIS2_PLACEMENT_3D ( 'NONE', #272, #169, #110 ) ;
#218 = CARTESIAN_POINT ( 'NONE',  ( 3.711026988604804456E-15, -1.226999999999999869, 0.000000000000000000 ) ) ;
#219 = ORIENTED_EDGE ( 'NONE', *, *, #389, .F. ) ;
#220 = ORIENTED_EDGE ( 'NONE', *, *, #223, .T. ) ;
#221 = ORIENTED_EDGE ( 'NONE', *, *, #364, .F. ) ;
#222 = AXIS2_PLACEMENT_3D ( 'NONE', #218, #381, #224 ) ;
#223 = EDGE_CURVE ( 'NONE', #61, #287, #35, .T. ) ;
#224 = DIRECTION ( 'NONE',  ( 1.000000000000000000, 3.531401361809932390E-15, 0.000000000000000000 ) ) ;
#225 = CARTESIAN_POINT ( 'NONE',  ( 5.772999999999990806, 2.032723690303900687E-14, 0.000000000000000000 ) ) ;
#226 = EDGE_CURVE ( 'NONE', #136, #397, #259, .T. ) ;
#227 = UNCERTAINTY_MEASURE_WITH_UNIT (LENGTH_MEASURE( 1.000000000000000082E-05 ), #174, 'distance_accuracy_value', 'NONE');
#228 = CARTESIAN_POINT ( 'NONE',  ( 4.000000000000052403, -14.99999999999998579, 0.000000000000000000 ) ) ;
#229 = FACE_OUTER_BOUND ( 'NONE', #175, .T. ) ;
#230 = ORIENTED_EDGE ( 'NONE', *, *, #4, .T. ) ;
#231 = FACE_OUTER_BOUND ( 'NONE', #54, .T. ) ;
#232 = DIRECTION ( 'NONE',  ( 3.521087286166470758E-15, -1.000000000000000000, 0.000000000000000000 ) ) ;
#233 = CLOSED_SHELL ( 'NONE', ( #14, #198, #252, #303, #75, #312, #277, #293, #108, #282, #241, #310, #1, #91 ) ) ;
#234 = DIRECTION ( 'NONE',  ( 3.521087286166470758E-15, -1.000000000000000000, 0.000000000000000000 ) ) ;
#235 = DIRECTION ( 'NONE',  ( 0.7071067811865506814, -0.7071067811865443531, 0.000000000000000000 ) ) ;
#236 = ORIENTED_EDGE ( 'NONE', *, *, #336, .F. ) ;
#237 = DIRECTION ( 'NONE',  ( 3.521087286166470758E-15, -1.000000000000000000, 0.000000000000000000 ) ) ;
#238 = VERTEX_POINT ( 'NONE', #246 ) ;
#239 = PRESENTATION_LAYER_ASSIGNMENT (  '', '', ( #340 ) ) ;
#240 = LINE ( 'NONE', #301, #158 ) ;
#241 = ADVANCED_FACE ( 'PLANAR_1', ( #211, #296 ), #148, .F. ) ;
#242 = AXIS2_PLACEMENT_3D ( 'NONE', #165, #10, #73 ) ;
#243 = CARTESIAN_POINT ( 'NONE',  ( 5.220696218097560658E-14, -15.00000000000000000, 0.000000000000000000 ) ) ;
#244 = CARTESIAN_POINT ( 'NONE',  ( -5.772999999999992582, -2.032723690303900687E-14, 7.821206782754562383E-16 ) ) ;
#245 = ORIENTED_EDGE ( 'NONE', *, *, #336, .T. ) ;
#246 = CARTESIAN_POINT ( 'NONE',  ( 5.773000000000051202, -14.99999999999997868, 7.821206782754570271E-16 ) ) ;
#247 =( NAMED_UNIT ( * ) PLANE_ANGLE_UNIT ( ) SI_UNIT ( $, .RADIAN. ) );
#248 = EDGE_LOOP ( 'NONE', ( #394, #22 ) ) ;
#249 = DIRECTION ( 'NONE',  ( 3.521087286166470758E-15, -1.000000000000000000, 0.000000000000000000 ) ) ;
#250 = VERTEX_POINT ( 'NONE', #143 ) ;
#251 = AXIS2_PLACEMENT_3D ( 'NONE', #9, #160, #314 ) ;
#252 = ADVANCED_FACE ( 'CONE_2', ( #27 ), #7, .T. ) ;
#253 = ORIENTED_EDGE ( 'NONE', *, *, #389, .T. ) ;
#254 = VERTEX_POINT ( 'NONE', #19 ) ;
#255 = AXIS2_PLACEMENT_3D ( 'NONE', #360, #79, #112 ) ;
#256 = EDGE_CURVE ( 'NONE', #31, #159, #190, .T. ) ;
#257 = CARTESIAN_POINT ( 'NONE',  ( -6.999999999999951150, -13.77300000000002456, 8.572527594031470232E-16 ) ) ;
#258 = CARTESIAN_POINT ( 'NONE',  ( 4.788658808084935128E-14, -13.77299999999999969, 0.000000000000000000 ) ) ;
#259 = CIRCLE ( 'NONE', #194, 5.772999999999991694 ) ;
#260 = CONICAL_SURFACE ( 'NONE', #115, 4.000000000000000000, 0.7853981633974482790 ) ;
#261 = CARTESIAN_POINT ( 'NONE',  ( 4.000000000000052403, -14.99999999999998579, 0.000000000000000000 ) ) ;
#262 = ORIENTED_EDGE ( 'NONE', *, *, #187, .F. ) ;
#263 = DIRECTION ( 'NONE',  ( 1.000000000000000000, 3.521087286166471152E-15, 0.000000000000000000 ) ) ;
#264 = CYLINDRICAL_SURFACE ( 'NONE', #39, 6.999999999999996447 ) ;
#265 = DIRECTION ( 'NONE',  ( 3.521087286166470758E-15, -1.000000000000000000, 0.000000000000000000 ) ) ;
#266 = ORIENTED_EDGE ( 'NONE', *, *, #66, .F. ) ;
#267 = FACE_OUTER_BOUND ( 'NONE', #181, .T. ) ;
#268 = PRODUCT_DEFINITION ( 'UNKNOWN', '', #200, #195 ) ;
#269 = DIRECTION ( 'NONE',  ( -1.000000000000000000, -3.521087286166470758E-15, 0.000000000000000000 ) ) ;
#270 = ORIENTED_EDGE ( 'NONE', *, *, #172, .F. ) ;
#271 = AXIS2_PLACEMENT_3D ( 'NONE', #155, #249, #58 ) ;
#272 = CARTESIAN_POINT ( 'NONE',  ( -6.093471115214561674E-16, 0.000000000000000000, 0.000000000000000000 ) ) ;
#273 = ORIENTED_EDGE ( 'NONE', *, *, #281, .F. ) ;
#274 = CARTESIAN_POINT ( 'NONE',  ( -6.093471115214561674E-16, 0.000000000000000000, 0.000000000000000000 ) ) ;
#275 = CARTESIAN_POINT ( 'NONE',  ( 3.323499999999999677, 1.170233359557426582E-14, 0.000000000000000000 ) ) ;
#276 = ORIENTED_EDGE ( 'NONE', *, *, #358, .F. ) ;
#277 = ADVANCED_FACE ( 'PLANAR_0', ( #349, #153 ), #176, .F. ) ;
#278 = DIRECTION ( 'NONE',  ( 3.521087286166470758E-15, -1.000000000000000000, 0.000000000000000000 ) ) ;
#279 = ORIENTED_EDGE ( 'NONE', *, *, #20, .F. ) ;
#280 = ORIENTED_EDGE ( 'NONE', *, *, #369, .F. ) ;
#281 = EDGE_CURVE ( 'NONE', #238, #287, #87, .T. ) ;
#282 = ADVANCED_FACE ( 'CONE_1', ( #15 ), #83, .F. ) ;
#283 = DIRECTION ( 'NONE',  ( 1.000000000000000000, 3.605868995621286084E-15, 0.000000000000000000 ) ) ;
#284 = DIRECTION ( 'NONE',  ( 1.000000000000000000, 3.521087286166470758E-15, 0.000000000000000000 ) ) ;
#285 = CARTESIAN_POINT ( 'NONE',  ( -6.093471115214561674E-16, 0.000000000000000000, 0.000000000000000000 ) ) ;
#286 = VECTOR ( 'NONE', #192, 1000.000000000000000 ) ;
#287 = VERTEX_POINT ( 'NONE', #325 ) ;
#288 = CARTESIAN_POINT ( 'NONE',  ( 3.323500000000001453, -0.6764999999999874447, 4.070113636966227938E-16 ) ) ;
#289 = SURFACE_STYLE_USAGE ( .BOTH. , #44 ) ;
#290 = CYLINDRICAL_SURFACE ( 'NONE', #380, 3.323500000000000121 ) ;
#291 = DIRECTION ( 'NONE',  ( 3.521087286166470758E-15, -1.000000000000000000, 0.000000000000000000 ) ) ;
#292 = CONICAL_SURFACE ( 'NONE', #316, 6.999999999999999112, 0.7853981633974485010 ) ;
#293 = ADVANCED_FACE ( 'CONE_0', ( #179 ), #260, .F. ) ;
#294 = LINE ( 'NONE', #328, #68 ) ;
#295 = ORIENTED_EDGE ( 'NONE', *, *, #383, .T. ) ;
#296 = FACE_BOUND ( 'NONE', #248, .T. ) ;
#297 = LINE ( 'NONE', #21, #47 ) ;
#298 = ORIENTED_EDGE ( 'NONE', *, *, #383, .F. ) ;
#299 = DIRECTION ( 'NONE',  ( 3.521087286166470758E-15, -1.000000000000000000, 0.000000000000000000 ) ) ;
#300 = ORIENTED_EDGE ( 'NONE', *, *, #256, .T. ) ;
#301 = CARTESIAN_POINT ( 'NONE',  ( -3.999999999999948042, -15.00000000000001421, 4.898587196589412829E-16 ) ) ;
#302 = CARTESIAN_POINT ( 'NONE',  ( -6.999999999999951150, -13.77300000000002456, 0.000000000000000000 ) ) ;
#303 = ADVANCED_FACE ( 'CONE_1', ( #80 ), #339, .F. ) ;
#304 = ORIENTED_EDGE ( 'NONE', *, *, #329, .F. ) ;
#305 = FACE_OUTER_BOUND ( 'NONE', #49, .T. ) ;
#306 = ORIENTED_EDGE ( 'NONE', *, *, #81, .T. ) ;
#307 = ORIENTED_EDGE ( 'NONE', *, *, #226, .T. ) ;
#308 = AXIS2_PLACEMENT_3D ( 'NONE', #393, #114, #52 ) ;
#309 = AXIS2_PLACEMENT_3D ( 'NONE', #24, #384, #107 ) ;
#310 = ADVANCED_FACE ( 'CONE_2', ( #267 ), #317, .T. ) ;
#311 = DIRECTION ( 'NONE',  ( 3.521087286166470758E-15, -1.000000000000000000, 0.000000000000000000 ) ) ;
#312 = ADVANCED_FACE ( 'CONE_0', ( #305 ), #132, .F. ) ;
#313 = DIRECTION ( 'NONE',  ( 3.521087286166470758E-15, -1.000000000000000000, 0.000000000000000000 ) ) ;
#314 = DIRECTION ( 'NONE',  ( 1.000000000000000000, 3.523208503939656741E-15, 0.000000000000000000 ) ) ;
#315 = DIRECTION ( 'NONE',  ( 1.000000000000000000, 3.521087286166470758E-15, 0.000000000000000000 ) ) ;
#316 = AXIS2_PLACEMENT_3D ( 'NONE', #133, #101, #138 ) ;
#317 = CONICAL_SURFACE ( 'NONE', #271, 5.772999999999991694, 0.7853981633974492782 ) ;
#318 = DIRECTION ( 'NONE',  ( 0.7071067811865452413, 0.7071067811865497932, 8.659560562354935323E-17 ) ) ;
#319 = FILL_AREA_STYLE ('',( #197 ) ) ;
#320 = CARTESIAN_POINT ( 'NONE',  ( 4.982494663188398621E-14, -14.32349999999999923, 0.000000000000000000 ) ) ;
#321 = CARTESIAN_POINT ( 'NONE',  ( 1.772668437570158681E-15, -0.6764999999999991021, 0.000000000000000000 ) ) ;
#322 = VERTEX_POINT ( 'NONE', #333 ) ;
#323 = DIRECTION ( 'NONE',  ( 3.521087286166470758E-15, -1.000000000000000000, 0.000000000000000000 ) ) ;
#324 = APPLICATION_CONTEXT ( 'automotive_design' ) ;
#325 = CARTESIAN_POINT ( 'NONE',  ( 7.000000000000046185, -13.77299999999997659, 0.000000000000000000 ) ) ;
#326 = SHAPE_DEFINITION_REPRESENTATION ( #26, #109 ) ;
#327 = ORIENTED_EDGE ( 'NONE', *, *, #134, .F. ) ;
#328 = CARTESIAN_POINT ( 'NONE',  ( -6.999999999999997335, -2.464761100316528426E-14, 8.572527594031468259E-16 ) ) ;
#329 = EDGE_CURVE ( 'NONE', #146, #287, #90, .T. ) ;
#330 = APPLICATION_PROTOCOL_DEFINITION ( 'draft international standard', 'automotive_design', 1998, #170 ) ;
#331 = ORIENTED_EDGE ( 'NONE', *, *, #4, .F. ) ;
#332 = AXIS2_PLACEMENT_3D ( 'NONE', #164, #162, #37 ) ;
#333 = CARTESIAN_POINT ( 'NONE',  ( -3.323499999999997456, -0.6765000000000108704, 4.070113636966257520E-16 ) ) ;
#334 = EDGE_LOOP ( 'NONE', ( #29, #399, #382, #219 ) ) ;
#335 = EDGE_LOOP ( 'NONE', ( #298, #327, #189, #300 ) ) ;
#336 = EDGE_CURVE ( 'NONE', #146, #250, #354, .T. ) ;
#337 = MECHANICAL_DESIGN_GEOMETRIC_PRESENTATION_REPRESENTATION (  '', ( #340 ), #163 ) ;
#338 = ORIENTED_EDGE ( 'NONE', *, *, #193, .T. ) ;
#339 = CONICAL_SURFACE ( 'NONE', #309, 3.323499999999999677, 0.7853981633974485010 ) ;
#340 = STYLED_ITEM ( 'NONE', ( #11 ), #355 ) ;
#341 = CARTESIAN_POINT ( 'NONE',  ( -6.093471115214561674E-16, 0.000000000000000000, 0.000000000000000000 ) ) ;
#342 = DIRECTION ( 'NONE',  ( 1.000000000000000000, 3.605868995621286084E-15, 0.000000000000000000 ) ) ;
#343 = DIRECTION ( 'NONE',  ( 3.521087286166470758E-15, -1.000000000000000000, 0.000000000000000000 ) ) ;
#344 = EDGE_CURVE ( 'NONE', #254, #238, #191, .T. ) ;
#345 = CARTESIAN_POINT ( 'NONE',  ( 3.323500000000049859, -14.32349999999998680, 0.000000000000000000 ) ) ;
#346 = ORIENTED_EDGE ( 'NONE', *, *, #395, .F. ) ;
#347 = CARTESIAN_POINT ( 'NONE',  ( -6.093471115214561674E-16, 0.000000000000000000, 0.000000000000000000 ) ) ;
#348 = AXIS2_PLACEMENT_3D ( 'NONE', #341, #201, #315 ) ;
#349 = FACE_BOUND ( 'NONE', #186, .T. ) ;
#350 = DIRECTION ( 'NONE',  ( 1.000000000000000000, 3.469446951953614189E-15, 0.000000000000000000 ) ) ;
#351 = AXIS2_PLACEMENT_3D ( 'NONE', #177, #385, #119 ) ;
#352 = CARTESIAN_POINT ( 'NONE',  ( -3.323499999999950827, -14.32350000000001167, 4.484350416777820630E-16 ) ) ;
#353 = CIRCLE ( 'NONE', #348, 3.999999999999999112 ) ;
#354 = CIRCLE ( 'NONE', #222, 6.999999999999992895 ) ;
#355 = MANIFOLD_SOLID_BREP ( 'Body-Move/Copy2', #233 ) ;
#356 = CARTESIAN_POINT ( 'NONE',  ( -5.772999999999947285, -15.00000000000001954, 0.000000000000000000 ) ) ;
#357 = ORIENTED_EDGE ( 'NONE', *, *, #172, .T. ) ;
#358 = EDGE_CURVE ( 'NONE', #204, #93, #378, .T. ) ;
#359 = DIRECTION ( 'NONE',  ( 1.000000000000000000, 3.469446951953614978E-15, 0.000000000000000000 ) ) ;
#360 = CARTESIAN_POINT ( 'NONE',  ( 0.000000000000000000, 0.000000000000000000, 0.000000000000000000 ) ) ;
#361 = ORIENTED_EDGE ( 'NONE', *, *, #59, .F. ) ;
#362 = CARTESIAN_POINT ( 'NONE',  ( 5.220696218097560658E-14, -15.00000000000000000, 0.000000000000000000 ) ) ;
#363 = ORIENTED_EDGE ( 'NONE', *, *, #20, .T. ) ;
#364 = EDGE_CURVE ( 'NONE', #89, #31, #84, .T. ) ;
#365 = VERTEX_POINT ( 'NONE', #48 ) ;
#366 = ORIENTED_EDGE ( 'NONE', *, *, #157, .F. ) ;
#367 = PRODUCT ( '1.35.1140815', '1.35.1140815', '', ( #88 ) ) ;
#368 = VECTOR ( 'NONE', #215, 1000.000000000000000 ) ;
#369 = EDGE_CURVE ( 'NONE', #136, #146, #212, .T. ) ;
#370 = DIRECTION ( 'NONE',  ( -1.000000000000000000, -3.469446951953614583E-15, 0.000000000000000000 ) ) ;
#371 = AXIS2_PLACEMENT_3D ( 'NONE', #131, #311, #71 ) ;
#372 = CONICAL_SURFACE ( 'NONE', #113, 6.999999999999999112, 0.7853981633974485010 ) ;
#373 = FACE_OUTER_BOUND ( 'NONE', #77, .T. ) ;
#374 = PRODUCT_RELATED_PRODUCT_CATEGORY ( 'part', '', ( #367 ) ) ;
#375 = DIRECTION ( 'NONE',  ( 1.000000000000000000, 3.653697707789273132E-15, 0.000000000000000000 ) ) ;
#376 = DIRECTION ( 'NONE',  ( -3.521087286166470758E-15, 1.000000000000000000, 0.000000000000000000 ) ) ;
#377 = SURFACE_STYLE_FILL_AREA ( #319 ) ;
#378 = CIRCLE ( 'NONE', #23, 4.000000000000000000 ) ;
#379 = CARTESIAN_POINT ( 'NONE',  ( -6.093471115214561674E-16, 0.000000000000000000, 0.000000000000000000 ) ) ;
#380 = AXIS2_PLACEMENT_3D ( 'NONE', #347, #99, #284 ) ;
#381 = DIRECTION ( 'NONE',  ( 3.521087286166470758E-15, -1.000000000000000000, 0.000000000000000000 ) ) ;
#382 = ORIENTED_EDGE ( 'NONE', *, *, #59, .T. ) ;
#383 = EDGE_CURVE ( 'NONE', #322, #159, #297, .T. ) ;
#384 = DIRECTION ( 'NONE',  ( -3.521087286166470758E-15, 1.000000000000000000, 0.000000000000000000 ) ) ;
#385 = DIRECTION ( 'NONE',  ( 3.521087286166470758E-15, -1.000000000000000000, 0.000000000000000000 ) ) ;
#386 = LINE ( 'NONE', #118, #161 ) ;
#387 = CARTESIAN_POINT ( 'NONE',  ( -6.093471115214561674E-16, 0.000000000000000000, 0.000000000000000000 ) ) ;
#388 = VECTOR ( 'NONE', #396, 1000.000000000000000 ) ;
#389 = EDGE_CURVE ( 'NONE', #254, #61, #17, .T. ) ;
#390 = ORIENTED_EDGE ( 'NONE', *, *, #126, .T. ) ;
#391 = DIRECTION ( 'NONE',  ( 1.000000000000000000, 3.653697707789273132E-15, 0.000000000000000000 ) ) ;
#392 = ORIENTED_EDGE ( 'NONE', *, *, #151, .F. ) ;
#393 = CARTESIAN_POINT ( 'NONE',  ( -4.000000000000000000, -1.387778780781445676E-14, 0.000000000000000000 ) ) ;
#394 = ORIENTED_EDGE ( 'NONE', *, *, #157, .T. ) ;
#395 = EDGE_CURVE ( 'NONE', #397, #136, #188, .T. ) ;
#396 = DIRECTION ( 'NONE',  ( 3.521087286166470758E-15, -1.000000000000000000, 0.000000000000000000 ) ) ;
#397 = VERTEX_POINT ( 'NONE', #244 ) ;
#398 = CIRCLE ( 'NONE', #251, 3.323499999999999677 ) ;
#399 = ORIENTED_EDGE ( 'NONE', *, *, #281, .T. ) ;
ENDSEC;
END-ISO-10303-21;
