ISO-10303-21;
HEADER;
FILE_DESCRIPTION (( 'STEP AP214' ),
    '1' );
FILE_NAME ('1.35.1140630.STEP',
    '2024-10-11T20:20:14',
    ( '' ),
    ( '' ),
    'SwSTEP 2.0',
    'SolidWorks 2024',
    '' );
FILE_SCHEMA (( 'AUTOMOTIVE_DESIGN' ));
ENDSEC;

DATA;
#1 = CARTESIAN_POINT ( 'NONE',  ( 1.031650656514155094E-16, 0.000000000000000000, 5.772999999999992582 ) ) ;
#2 = ORIENTED_EDGE ( 'NONE', *, *, #24, .F. ) ;
#3 = DIRECTION ( 'NONE',  ( -2.555445736705811246E-15, 0.7071067811865463515, 0.7071067811865487940 ) ) ;
#4 = DIRECTION ( 'NONE',  ( 3.491481338843133355E-15, -1.000000000000000000, 0.000000000000000000 ) ) ;
#5 = DIRECTION ( 'NONE',  ( 0.000000000000000000, 0.000000000000000000, 1.000000000000000000 ) ) ;
#6 = ORIENTED_EDGE ( 'NONE', *, *, #318, .T. ) ;
#7 = CARTESIAN_POINT ( 'NONE',  ( 1.031650656514155094E-16, 0.000000000000000000, 6.999999999999996447 ) ) ;
#8 = VECTOR ( 'NONE', #190, 1000.000000000000000 ) ;
#9 = ORIENTED_EDGE ( 'NONE', *, *, #280, .F. ) ;
#10 = CARTESIAN_POINT ( 'NONE',  ( -5.772999999999894882, -30.00000000000002132, 0.000000000000000000 ) ) ;
#11 = EDGE_LOOP ( 'NONE', ( #304, #281, #160, #104 ) ) ;
#12 = EDGE_CURVE ( 'NONE', #337, #310, #115, .T. ) ;
#13 = CARTESIAN_POINT ( 'NONE',  ( 1.048476052309454149E-13, -30.00000000000000000, 0.000000000000000000 ) ) ;
#14 = AXIS2_PLACEMENT_3D ( 'NONE', #357, #76, #200 ) ;
#15 = CARTESIAN_POINT ( 'NONE',  ( 1.048476052309454149E-13, -30.00000000000000000, 0.000000000000000000 ) ) ;
#16 = DIRECTION ( 'NONE',  ( 0.000000000000000000, 0.000000000000000000, 1.000000000000000000 ) ) ;
#17 = CARTESIAN_POINT ( 'NONE',  ( 1.031650656514155094E-16, 0.000000000000000000, 0.000000000000000000 ) ) ;
#18 = DIRECTION ( 'NONE',  ( 3.491481338843133355E-15, -1.000000000000000000, 0.000000000000000000 ) ) ;
#19 = CARTESIAN_POINT ( 'NONE',  ( 1.031650656514170501E-16, 0.000000000000000000, -3.000000000000000000 ) ) ;
#20 = ADVANCED_FACE ( 'CONE_2', ( #312 ), #195, .T. ) ;
#21 = UNCERTAINTY_MEASURE_WITH_UNIT (LENGTH_MEASURE( 1.000000000000000082E-05 ), #391, 'distance_accuracy_value', 'NONE');
#22 =( GEOMETRIC_REPRESENTATION_CONTEXT ( 3 ) GLOBAL_UNCERTAINTY_ASSIGNED_CONTEXT ( ( #21 ) ) GLOBAL_UNIT_ASSIGNED_CONTEXT ( ( #391, #177, #363 ) ) REPRESENTATION_CONTEXT ( 'NONE', 'WORKASPACE' ) );
#23 = CYLINDRICAL_SURFACE ( 'NONE', #188, 6.999999999999996447 ) ;
#24 = EDGE_CURVE ( 'NONE', #101, #393, #369, .T. ) ;
#25 = DIRECTION ( 'NONE',  ( 0.000000000000000000, 0.000000000000000000, 1.000000000000000000 ) ) ;
#26 = CIRCLE ( 'NONE', #353, 7.000000000000000000 ) ;
#27 = DIRECTION ( 'NONE',  ( 3.491481338843133355E-15, -1.000000000000000000, 0.000000000000000000 ) ) ;
#28 = ADVANCED_FACE ( 'CONE_3', ( #338 ), #348, .T. ) ;
#29 = ORIENTED_EDGE ( 'NONE', *, *, #366, .F. ) ;
#30 = ADVANCED_FACE ( 'CONE_1', ( #274 ), #88, .F. ) ;
#31 = CARTESIAN_POINT ( 'NONE',  ( 4.387212668411936285E-15, -1.226999999999998980, 6.999999999999992895 ) ) ;
#32 = EDGE_CURVE ( 'NONE', #376, #45, #244, .T. ) ;
#33 = MANIFOLD_SOLID_BREP ( 'Body-Move/Copy2', #317 ) ;
#34 = CIRCLE ( 'NONE', #157, 2.458499999999999908 ) ;
#35 = ORIENTED_EDGE ( 'NONE', *, *, #135, .F. ) ;
#36 = ADVANCED_FACE ( 'CYL_1', ( #184 ), #303, .T. ) ;
#37 = VERTEX_POINT ( 'NONE', #124 ) ;
#38 = DIRECTION ( 'NONE',  ( 0.000000000000000000, 0.000000000000000000, -1.000000000000000000 ) ) ;
#39 = COLOUR_RGB ( '',0.7921568627450980005, 0.8196078431372548767, 0.9333333333333333481 ) ;
#40 = CARTESIAN_POINT ( 'NONE',  ( 1.031650656514155094E-16, 0.000000000000000000, 0.000000000000000000 ) ) ;
#41 = DIRECTION ( 'NONE',  ( -3.491481338843133355E-15, 1.000000000000000000, -0.000000000000000000 ) ) ;
#42 = VERTEX_POINT ( 'NONE', #252 ) ;
#43 = DIRECTION ( 'NONE',  ( 2.382254525458716286E-15, -0.7071067811865475727, -0.7071067811865474617 ) ) ;
#44 = AXIS2_PLACEMENT_3D ( 'NONE', #15, #375, #316 ) ;
#45 = VERTEX_POINT ( 'NONE', #31 ) ;
#46 = CARTESIAN_POINT ( 'NONE',  ( 1.035680499307963424E-13, -29.45849999999999724, -2.458499999999999908 ) ) ;
#47 = DIRECTION ( 'NONE',  ( 3.491481338843133355E-15, -1.000000000000000000, 0.000000000000000000 ) ) ;
#48 = VECTOR ( 'NONE', #395, 1000.000000000000000 ) ;
#49 = CARTESIAN_POINT ( 'NONE',  ( 3.529959909008789459E-15, -1.226999999999998980, -6.999999999999992895 ) ) ;
#50 = FACE_OUTER_BOUND ( 'NONE', #178, .T. ) ;
#51 = LINE ( 'NONE', #292, #138 ) ;
#52 = EDGE_CURVE ( 'NONE', #332, #64, #249, .T. ) ;
#53 = APPLICATION_PROTOCOL_DEFINITION ( 'draft international standard', 'automotive_design', 1998, #212 ) ;
#54 = AXIS2_PLACEMENT_3D ( 'NONE', #17, #296, #172 ) ;
#55 = EDGE_CURVE ( 'NONE', #277, #45, #134, .T. ) ;
#56 = EDGE_LOOP ( 'NONE', ( #259, #128 ) ) ;
#57 = ORIENTED_EDGE ( 'NONE', *, *, #323, .F. ) ;
#58 = DIRECTION ( 'NONE',  ( 3.491481338843133355E-15, -1.000000000000000000, 0.000000000000000000 ) ) ;
#59 = FILL_AREA_STYLE_COLOUR ( '', #39 ) ;
#60 = ORIENTED_EDGE ( 'NONE', *, *, #32, .F. ) ;
#61 = DIRECTION ( 'NONE',  ( 0.000000000000000000, 0.000000000000000000, -1.000000000000000000 ) ) ;
#62 = EDGE_CURVE ( 'NONE', #64, #310, #213, .T. ) ;
#63 = ORIENTED_EDGE ( 'NONE', *, *, #112, .F. ) ;
#64 = VERTEX_POINT ( 'NONE', #87 ) ;
#65 = FACE_BOUND ( 'NONE', #72, .T. ) ;
#66 = CIRCLE ( 'NONE', #118, 3.000000000000000000 ) ;
#67 = ADVANCED_FACE ( 'CYL_0', ( #185 ), #122, .F. ) ;
#68 = ORIENTED_EDGE ( 'NONE', *, *, #123, .T. ) ;
#69 = DIRECTION ( 'NONE',  ( 0.000000000000000000, 0.000000000000000000, 1.000000000000000000 ) ) ;
#70 = EDGE_LOOP ( 'NONE', ( #132, #57, #166, #91 ) ) ;
#71 = ORIENTED_EDGE ( 'NONE', *, *, #234, .T. ) ;
#72 = EDGE_LOOP ( 'NONE', ( #182, #147 ) ) ;
#73 = DIRECTION ( 'NONE',  ( -2.468850131082263766E-15, 0.7071067811865470176, -0.7071067811865481278 ) ) ;
#74 = AXIS2_PLACEMENT_3D ( 'NONE', #13, #47, #102 ) ;
#75 = CARTESIAN_POINT ( 'NONE',  ( 1.993802210634968906E-15, -0.5414999999999985381, -2.458499999999999908 ) ) ;
#76 = DIRECTION ( 'NONE',  ( 3.491481338843133355E-15, -1.000000000000000000, 0.000000000000000000 ) ) ;
#77 = CIRCLE ( 'NONE', #301, 2.458499999999999908 ) ;
#78 = DIRECTION ( 'NONE',  ( 0.000000000000000000, 0.000000000000000000, 1.000000000000000000 ) ) ;
#79 = CARTESIAN_POINT ( 'NONE',  ( 0.000000000000000000, 0.000000000000000000, 0.000000000000000000 ) ) ;
#80 = CARTESIAN_POINT ( 'NONE',  ( 4.387212668411934707E-15, -1.226999999999998980, 0.000000000000000000 ) ) ;
#81 = PRODUCT_CONTEXT ( 'NONE', #261, 'mechanical' ) ;
#82 = VECTOR ( 'NONE', #43, 1000.000000000000000 ) ;
#83 = ORIENTED_EDGE ( 'NONE', *, *, #334, .T. ) ;
#84 = DIRECTION ( 'NONE',  ( 0.000000000000000000, 0.000000000000000000, 1.000000000000000000 ) ) ;
#85 = ADVANCED_FACE ( 'PLANAR_1', ( #333, #65 ), #187, .F. ) ;
#86 = ORIENTED_EDGE ( 'NONE', *, *, #123, .F. ) ;
#87 = CARTESIAN_POINT ( 'NONE',  ( 1.993802210634968906E-15, -0.5414999999999985381, 2.458499999999999908 ) ) ;
#88 = CONICAL_SURFACE ( 'NONE', #397, 2.458499999999999908, 0.7853981633974499443 ) ;
#89 = DIRECTION ( 'NONE',  ( 0.000000000000000000, 0.000000000000000000, -1.000000000000000000 ) ) ;
#90 = PRODUCT_RELATED_PRODUCT_CATEGORY ( 'part', '', ( #358 ) ) ;
#91 = ORIENTED_EDGE ( 'NONE', *, *, #140, .T. ) ;
#92 = CARTESIAN_POINT ( 'NONE',  ( 1.692722795064592238E-15, -0.5414999999999985381, 2.458499999999999908 ) ) ;
#93 = AXIS2_PLACEMENT_3D ( 'NONE', #260, #311, #5 ) ;
#94 = ORIENTED_EDGE ( 'NONE', *, *, #100, .F. ) ;
#95 = FILL_AREA_STYLE ('',( #59 ) ) ;
#96 = PRODUCT_DEFINITION_SHAPE ( 'NONE', 'NONE',  #266 ) ;
#97 = CONICAL_SURFACE ( 'NONE', #146, 3.000000000000000000, 0.7853981633974482790 ) ;
#98 = ORIENTED_EDGE ( 'NONE', *, *, #394, .F. ) ;
#99 =( LENGTH_UNIT ( ) NAMED_UNIT ( * ) SI_UNIT ( .MILLI., .METRE. ) );
#100 = EDGE_CURVE ( 'NONE', #37, #376, #321, .T. ) ;
#101 = VERTEX_POINT ( 'NONE', #284 ) ;
#102 = DIRECTION ( 'NONE',  ( 0.000000000000000000, 0.000000000000000000, 1.000000000000000000 ) ) ;
#103 = PRODUCT_DEFINITION_FORMATION_WITH_SPECIFIED_SOURCE ( 'ANY', '', #358, .NOT_KNOWN. ) ;
#104 = ORIENTED_EDGE ( 'NONE', *, *, #234, .F. ) ;
#105 = LINE ( 'NONE', #7, #8 ) ;
#106 = ORIENTED_EDGE ( 'NONE', *, *, #55, .F. ) ;
#107 = DIRECTION ( 'NONE',  ( 0.000000000000000000, 0.000000000000000000, 1.000000000000000000 ) ) ;
#108 = ORIENTED_EDGE ( 'NONE', *, *, #366, .T. ) ;
#109 = MECHANICAL_DESIGN_GEOMETRIC_PRESENTATION_REPRESENTATION (  '', ( #143 ), #263 ) ;
#110 = CARTESIAN_POINT ( 'NONE',  ( 1.005635576281848953E-13, -28.77299999999999969, 7.000000000000000000 ) ) ;
#111 = CARTESIAN_POINT ( 'NONE',  ( 5.217430573272803833E-14, -0.5414999999999985381, -2.458499999999999908 ) ) ;
#112 = EDGE_CURVE ( 'NONE', #332, #191, #384, .T. ) ;
#113 = CARTESIAN_POINT ( 'NONE',  ( 5.161813238889524333E-14, -28.77299999999999969, -7.000000000000000000 ) ) ;
#114 = CARTESIAN_POINT ( 'NONE',  ( -2.642289740927886532E-16, 0.000000000000000000, 3.000000000000000000 ) ) ;
#115 = CIRCLE ( 'NONE', #145, 3.000000000000000000 ) ;
#116 = LINE ( 'NONE', #325, #48 ) ;
#117 = VECTOR ( 'NONE', #377, 999.9999999999998863 ) ;
#118 = AXIS2_PLACEMENT_3D ( 'NONE', #264, #262, #295 ) ;
#119 = ORIENTED_EDGE ( 'NONE', *, *, #140, .F. ) ;
#120 = DIRECTION ( 'NONE',  ( -2.555445736705813218E-15, 0.7071067811865470176, 0.7071067811865481278 ) ) ;
#121 = ORIENTED_EDGE ( 'NONE', *, *, #334, .F. ) ;
#122 = CYLINDRICAL_SURFACE ( 'NONE', #237, 2.458499999999999908 ) ;
#123 = EDGE_CURVE ( 'NONE', #64, #42, #258, .T. ) ;
#124 = CARTESIAN_POINT ( 'NONE',  ( 1.463068188756219634E-15, 4.748076376954919305E-30, -5.772999999999992582 ) ) ;
#125 = CIRCLE ( 'NONE', #256, 5.772999999999992582 ) ;
#126 = DIRECTION ( 'NONE',  ( 0.000000000000000000, 0.000000000000000000, 1.000000000000000000 ) ) ;
#127 = AXIS2_PLACEMENT_3D ( 'NONE', #129, #399, #126 ) ;
#128 = ORIENTED_EDGE ( 'NONE', *, *, #135, .T. ) ;
#129 = CARTESIAN_POINT ( 'NONE',  ( 1.031650656514155094E-16, 0.000000000000000000, 0.000000000000000000 ) ) ;
#130 = DIRECTION ( 'NONE',  ( 0.000000000000000000, 0.000000000000000000, 1.000000000000000000 ) ) ;
#131 = CARTESIAN_POINT ( 'NONE',  ( 1.993802210634968906E-15, -0.5414999999999985381, 0.000000000000000000 ) ) ;
#132 = ORIENTED_EDGE ( 'NONE', *, *, #179, .F. ) ;
#133 = CARTESIAN_POINT ( 'NONE',  ( 1.044802111912012095E-13, -30.00000000000000000, -3.000000000000000000 ) ) ;
#134 = CIRCLE ( 'NONE', #216, 6.999999999999992895 ) ;
#135 = EDGE_CURVE ( 'NONE', #393, #101, #270, .T. ) ;
#136 = EDGE_LOOP ( 'NONE', ( #210, #193, #6, #9 ) ) ;
#137 = FACE_OUTER_BOUND ( 'NONE', #70, .T. ) ;
#138 = VECTOR ( 'NONE', #326, 1000.000000000000000 ) ;
#139 = DIRECTION ( 'NONE',  ( 3.491481338843133355E-15, -1.000000000000000000, 0.000000000000000000 ) ) ;
#140 = EDGE_CURVE ( 'NONE', #378, #163, #392, .T. ) ;
#141 = DIRECTION ( 'NONE',  ( 3.491481338843133355E-15, -1.000000000000000000, 0.000000000000000000 ) ) ;
#142 = CARTESIAN_POINT ( 'NONE',  ( 1.019234607512897115E-13, -30.00000000000000000, 5.772999999999999687 ) ) ;
#143 = STYLED_ITEM ( 'NONE', ( #180 ), #33 ) ;
#144 = CARTESIAN_POINT ( 'NONE',  ( 1.031650656514155094E-16, 0.000000000000000000, 0.000000000000000000 ) ) ;
#145 = AXIS2_PLACEMENT_3D ( 'NONE', #257, #4, #130 ) ;
#146 = AXIS2_PLACEMENT_3D ( 'NONE', #354, #379, #107 ) ;
#147 = ORIENTED_EDGE ( 'NONE', *, *, #209, .T. ) ;
#148 = CONICAL_SURFACE ( 'NONE', #364, 2.458499999999999908, 0.7853981633974499443 ) ;
#149 = ADVANCED_FACE ( 'CONE_0', ( #137 ), #97, .F. ) ;
#150 = CARTESIAN_POINT ( 'NONE',  ( 1.031650656514155094E-16, 0.000000000000000000, 0.000000000000000000 ) ) ;
#151 = EDGE_CURVE ( 'NONE', #101, #254, #168, .T. ) ;
#152 = CARTESIAN_POINT ( 'NONE',  ( 1.048476052309454149E-13, -30.00000000000000000, 0.000000000000000000 ) ) ;
#153 = ORIENTED_EDGE ( 'NONE', *, *, #253, .F. ) ;
#154 = DIRECTION ( 'NONE',  ( 0.000000000000000000, 0.000000000000000000, 1.000000000000000000 ) ) ;
#155 = EDGE_CURVE ( 'NONE', #191, #42, #355, .T. ) ;
#156 =( NAMED_UNIT ( * ) SI_UNIT ( $, .STERADIAN. ) SOLID_ANGLE_UNIT ( ) );
#157 = AXIS2_PLACEMENT_3D ( 'NONE', #233, #232, #267 ) ;
#158 = ORIENTED_EDGE ( 'NONE', *, *, #174, .F. ) ;
#159 = DIRECTION ( 'NONE',  ( 0.000000000000000000, 0.000000000000000000, 1.000000000000000000 ) ) ;
#160 = ORIENTED_EDGE ( 'NONE', *, *, #167, .T. ) ;
#161 = EDGE_LOOP ( 'NONE', ( #196, #346, #227, #218 ) ) ;
#162 = DIRECTION ( 'NONE',  ( 3.491481338843133355E-15, -1.000000000000000000, 0.000000000000000000 ) ) ;
#163 = VERTEX_POINT ( 'NONE', #133 ) ;
#164 = LINE ( 'NONE', #75, #117 ) ;
#165 = VECTOR ( 'NONE', #162, 1000.000000000000000 ) ;
#166 = ORIENTED_EDGE ( 'NONE', *, *, #280, .T. ) ;
#167 = EDGE_CURVE ( 'NONE', #45, #215, #105, .T. ) ;
#168 = LINE ( 'NONE', #221, #371 ) ;
#169 = CARTESIAN_POINT ( 'NONE',  ( 1.048476052309454149E-13, -30.00000000000000000, 0.000000000000000000 ) ) ;
#170 = CYLINDRICAL_SURFACE ( 'NONE', #54, 2.458499999999999908 ) ;
#171 = DIRECTION ( 'NONE',  ( 0.000000000000000000, 0.000000000000000000, 1.000000000000000000 ) ) ;
#172 = DIRECTION ( 'NONE',  ( 0.000000000000000000, 0.000000000000000000, 1.000000000000000000 ) ) ;
#173 = UNCERTAINTY_MEASURE_WITH_UNIT (LENGTH_MEASURE( 1.000000000000000082E-05 ), #99, 'distance_accuracy_value', 'NONE');
#174 = EDGE_CURVE ( 'NONE', #332, #337, #164, .T. ) ;
#175 = FACE_OUTER_BOUND ( 'NONE', #299, .T. ) ;
#176 = AXIS2_PLACEMENT_3D ( 'NONE', #144, #359, #78 ) ;
#177 =( NAMED_UNIT ( * ) PLANE_ANGLE_UNIT ( ) SI_UNIT ( $, .RADIAN. ) );
#178 = EDGE_LOOP ( 'NONE', ( #35, #342, #83, #374 ) ) ;
#179 = EDGE_CURVE ( 'NONE', #191, #163, #288, .T. ) ;
#180 = PRESENTATION_STYLE_ASSIGNMENT (( #246 ) ) ;
#181 = CARTESIAN_POINT ( 'NONE',  ( 1.031650656514155094E-16, 0.000000000000000000, 0.000000000000000000 ) ) ;
#182 = ORIENTED_EDGE ( 'NONE', *, *, #12, .T. ) ;
#183 = AXIS2_PLACEMENT_3D ( 'NONE', #150, #302, #69 ) ;
#184 = FACE_OUTER_BOUND ( 'NONE', #11, .T. ) ;
#185 = FACE_OUTER_BOUND ( 'NONE', #283, .T. ) ;
#186 = ORIENTED_EDGE ( 'NONE', *, *, #151, .T. ) ;
#187 = PLANE ( 'NONE',  #298 ) ;
#188 = AXIS2_PLACEMENT_3D ( 'NONE', #365, #265, #84 ) ;
#189 = EDGE_LOOP ( 'NONE', ( #98, #2, #186, #71 ) ) ;
#190 = DIRECTION ( 'NONE',  ( 3.491481338843133355E-15, -1.000000000000000000, 0.000000000000000000 ) ) ;
#191 = VERTEX_POINT ( 'NONE', #46 ) ;
#192 = DIRECTION ( 'NONE',  ( 0.000000000000000000, 0.000000000000000000, 1.000000000000000000 ) ) ;
#193 = ORIENTED_EDGE ( 'NONE', *, *, #179, .T. ) ;
#194 = CARTESIAN_POINT ( 'NONE',  ( 1.031650656514155094E-16, 0.000000000000000000, 2.458499999999999908 ) ) ;
#195 = CONICAL_SURFACE ( 'NONE', #247, 5.772999999999992582, 0.7853981633974490562 ) ;
#196 = ORIENTED_EDGE ( 'NONE', *, *, #62, .F. ) ;
#197 = CARTESIAN_POINT ( 'NONE',  ( 1.044802111912012095E-13, -30.00000000000000000, -3.000000000000000000 ) ) ;
#198 = AXIS2_PLACEMENT_3D ( 'NONE', #243, #282, #154 ) ;
#199 = FACE_OUTER_BOUND ( 'NONE', #161, .T. ) ;
#200 = DIRECTION ( 'NONE',  ( 0.000000000000000000, 0.000000000000000000, 1.000000000000000000 ) ) ;
#201 = DIRECTION ( 'NONE',  ( 0.000000000000000000, 0.000000000000000000, 1.000000000000000000 ) ) ;
#202 = VECTOR ( 'NONE', #361, 1000.000000000000000 ) ;
#203 = FACE_OUTER_BOUND ( 'NONE', #136, .T. ) ;
#204 = DIRECTION ( 'NONE',  ( 0.000000000000000000, 0.000000000000000000, -1.000000000000000000 ) ) ;
#205 = ADVANCED_FACE ( 'CONE_1', ( #199 ), #148, .F. ) ;
#206 = CARTESIAN_POINT ( 'NONE',  ( 1.048476052309454149E-13, -30.00000000000000000, 3.000000000000000000 ) ) ;
#207 = ORIENTED_EDGE ( 'NONE', *, *, #155, .T. ) ;
#208 = DIRECTION ( 'NONE',  ( 3.491481338843133355E-15, -1.000000000000000000, 0.000000000000000000 ) ) ;
#209 = EDGE_CURVE ( 'NONE', #310, #337, #368, .T. ) ;
#210 = ORIENTED_EDGE ( 'NONE', *, *, #155, .F. ) ;
#211 = AXIS2_PLACEMENT_3D ( 'NONE', #152, #27, #250 ) ;
#212 = APPLICATION_CONTEXT ( 'automotive_design' ) ;
#213 = LINE ( 'NONE', #92, #289 ) ;
#214 = PRODUCT_DEFINITION_CONTEXT ( 'detailed design', #212, 'design' ) ;
#215 = VERTEX_POINT ( 'NONE', #110 ) ;
#216 = AXIS2_PLACEMENT_3D ( 'NONE', #217, #341, #159 ) ;
#217 = CARTESIAN_POINT ( 'NONE',  ( 4.387212668411934707E-15, -1.226999999999998980, 0.000000000000000000 ) ) ;
#218 = ORIENTED_EDGE ( 'NONE', *, *, #209, .F. ) ;
#219 =( NAMED_UNIT ( * ) PLANE_ANGLE_UNIT ( ) SI_UNIT ( $, .RADIAN. ) );
#220 = ORIENTED_EDGE ( 'NONE', *, *, #323, .T. ) ;
#221 = CARTESIAN_POINT ( 'NONE',  ( 1.005635576281848953E-13, -28.77299999999999969, -7.000000000000000000 ) ) ;
#222 = AXIS2_PLACEMENT_3D ( 'NONE', #169, #141, #16 ) ;
#223 = ADVANCED_FACE ( 'PLANAR_0', ( #255, #322 ), #225, .F. ) ;
#224 = EDGE_LOOP ( 'NONE', ( #29, #251, #370, #106 ) ) ;
#225 = PLANE ( 'NONE',  #331 ) ;
#226 = AXIS2_PLACEMENT_3D ( 'NONE', #275, #398, #89 ) ;
#227 = ORIENTED_EDGE ( 'NONE', *, *, #174, .T. ) ;
#228 = DIRECTION ( 'NONE',  ( 0.000000000000000000, 0.000000000000000000, 1.000000000000000000 ) ) ;
#229 = ORIENTED_EDGE ( 'NONE', *, *, #306, .T. ) ;
#230 = CONICAL_SURFACE ( 'NONE', #291, 7.000000000000000000, 0.7853981633974490562 ) ;
#231 = CARTESIAN_POINT ( 'NONE',  ( 1.029569680859618579E-13, -29.45849999999999724, 0.000000000000000000 ) ) ;
#232 = DIRECTION ( 'NONE',  ( 3.491481338843133355E-15, -1.000000000000000000, 0.000000000000000000 ) ) ;
#233 = CARTESIAN_POINT ( 'NONE',  ( 1.993802210634968906E-15, -0.5414999999999985381, 0.000000000000000000 ) ) ;
#234 = EDGE_CURVE ( 'NONE', #254, #215, #26, .T. ) ;
#235 = CARTESIAN_POINT ( 'NONE',  ( 1.029569680859618579E-13, -29.45849999999999724, 0.000000000000000000 ) ) ;
#236 = CARTESIAN_POINT ( 'NONE',  ( 9.970630486878174926E-14, -28.77299999999999969, 7.000000000000000000 ) ) ;
#237 = AXIS2_PLACEMENT_3D ( 'NONE', #181, #343, #305 ) ;
#238 = APPLICATION_PROTOCOL_DEFINITION ( 'draft international standard', 'automotive_design', 1998, #261 ) ;
#239 = EDGE_CURVE ( 'NONE', #277, #254, #387, .T. ) ;
#240 = CIRCLE ( 'NONE', #14, 7.000000000000000000 ) ;
#241 = CARTESIAN_POINT ( 'NONE',  ( 1.031650656514155094E-16, 0.000000000000000000, 5.772999999999992582 ) ) ;
#242 = ORIENTED_EDGE ( 'NONE', *, *, #167, .F. ) ;
#243 = CARTESIAN_POINT ( 'NONE',  ( 1.993802210634968906E-15, -0.5414999999999985381, 0.000000000000000000 ) ) ;
#244 = LINE ( 'NONE', #1, #328 ) ;
#245 = ORIENTED_EDGE ( 'NONE', *, *, #351, .T. ) ;
#246 = SURFACE_STYLE_USAGE ( .BOTH. , #309 ) ;
#247 = AXIS2_PLACEMENT_3D ( 'NONE', #40, #349, #396 ) ;
#248 = ORIENTED_EDGE ( 'NONE', *, *, #306, .F. ) ;
#249 = CIRCLE ( 'NONE', #198, 2.458499999999999908 ) ;
#250 = DIRECTION ( 'NONE',  ( 0.000000000000000000, 0.000000000000000000, 1.000000000000000000 ) ) ;
#251 = ORIENTED_EDGE ( 'NONE', *, *, #100, .T. ) ;
#252 = CARTESIAN_POINT ( 'NONE',  ( 1.029569680859618579E-13, -29.45849999999999724, 2.458499999999999908 ) ) ;
#253 = EDGE_CURVE ( 'NONE', #64, #332, #34, .T. ) ;
#254 = VERTEX_POINT ( 'NONE', #113 ) ;
#255 = FACE_BOUND ( 'NONE', #314, .T. ) ;
#256 = AXIS2_PLACEMENT_3D ( 'NONE', #294, #208, #201 ) ;
#257 = CARTESIAN_POINT ( 'NONE',  ( 1.031650656514155094E-16, 0.000000000000000000, 0.000000000000000000 ) ) ;
#258 = LINE ( 'NONE', #194, #339 ) ;
#259 = ORIENTED_EDGE ( 'NONE', *, *, #24, .T. ) ;
#260 = CARTESIAN_POINT ( 'NONE',  ( 1.031650656514155094E-16, 0.000000000000000000, 0.000000000000000000 ) ) ;
#261 = APPLICATION_CONTEXT ( 'automotive_design' ) ;
#262 = DIRECTION ( 'NONE',  ( 3.491481338843133355E-15, -1.000000000000000000, 0.000000000000000000 ) ) ;
#263 =( GEOMETRIC_REPRESENTATION_CONTEXT ( 3 ) GLOBAL_UNCERTAINTY_ASSIGNED_CONTEXT ( ( #173 ) ) GLOBAL_UNIT_ASSIGNED_CONTEXT ( ( #99, #219, #156 ) ) REPRESENTATION_CONTEXT ( 'NONE', 'WORKASPACE' ) );
#264 = CARTESIAN_POINT ( 'NONE',  ( 1.048476052309454149E-13, -30.00000000000000000, 0.000000000000000000 ) ) ;
#265 = DIRECTION ( 'NONE',  ( 3.491481338843133355E-15, -1.000000000000000000, 0.000000000000000000 ) ) ;
#266 = PRODUCT_DEFINITION ( 'UNKNOWN', '', #103, #214 ) ;
#267 = DIRECTION ( 'NONE',  ( 0.000000000000000000, 0.000000000000000000, 1.000000000000000000 ) ) ;
#268 = CARTESIAN_POINT ( 'NONE',  ( 1.005635576281848953E-13, -28.77299999999999969, 0.000000000000000000 ) ) ;
#269 = DIRECTION ( 'NONE',  ( 1.000000000000000000, 0.000000000000000000, 0.000000000000000000 ) ) ;
#270 = CIRCLE ( 'NONE', #44, 5.772999999999999687 ) ;
#271 = EDGE_LOOP ( 'NONE', ( #63, #153, #68, #220 ) ) ;
#272 = AXIS2_PLACEMENT_3D ( 'NONE', #79, #327, #269 ) ;
#273 = ORIENTED_EDGE ( 'NONE', *, *, #52, .T. ) ;
#274 = FACE_OUTER_BOUND ( 'NONE', #381, .T. ) ;
#275 = CARTESIAN_POINT ( 'NONE',  ( 1.005635576281848953E-13, -28.77299999999999969, 0.000000000000000000 ) ) ;
#276 = ADVANCED_FACE ( 'CONE_2', ( #389 ), #307, .T. ) ;
#277 = VERTEX_POINT ( 'NONE', #49 ) ;
#278 = CARTESIAN_POINT ( 'NONE',  ( 1.993802210634968906E-15, -0.5414999999999985381, 0.000000000000000000 ) ) ;
#279 = DIRECTION ( 'NONE',  ( -3.491481338843133355E-15, 1.000000000000000000, 0.000000000000000000 ) ) ;
#280 = EDGE_CURVE ( 'NONE', #42, #378, #51, .T. ) ;
#281 = ORIENTED_EDGE ( 'NONE', *, *, #55, .T. ) ;
#282 = DIRECTION ( 'NONE',  ( 3.491481338843133355E-15, -1.000000000000000000, 0.000000000000000000 ) ) ;
#283 = EDGE_LOOP ( 'NONE', ( #308, #319, #207, #86 ) ) ;
#284 = CARTESIAN_POINT ( 'NONE',  ( 1.027055814295651614E-13, -30.00000000000000000, -5.772999999999999687 ) ) ;
#285 = ORIENTED_EDGE ( 'NONE', *, *, #351, .F. ) ;
#286 = DIRECTION ( 'NONE',  ( 0.000000000000000000, -0.000000000000000000, -1.000000000000000000 ) ) ;
#287 = ORIENTED_EDGE ( 'NONE', *, *, #12, .F. ) ;
#288 = LINE ( 'NONE', #197, #82 ) ;
#289 = VECTOR ( 'NONE', #3, 999.9999999999998863 ) ;
#290 = ORIENTED_EDGE ( 'NONE', *, *, #62, .T. ) ;
#291 = AXIS2_PLACEMENT_3D ( 'NONE', #268, #390, #204 ) ;
#292 = CARTESIAN_POINT ( 'NONE',  ( 1.048476052309454149E-13, -30.00000000000000000, 3.000000000000000000 ) ) ;
#293 = ADVANCED_FACE ( 'CONE_0', ( #203 ), #383, .F. ) ;
#294 = CARTESIAN_POINT ( 'NONE',  ( 1.031650656514155094E-16, 0.000000000000000000, 0.000000000000000000 ) ) ;
#295 = DIRECTION ( 'NONE',  ( 0.000000000000000000, 0.000000000000000000, 1.000000000000000000 ) ) ;
#296 = DIRECTION ( 'NONE',  ( 3.491481338843133355E-15, -1.000000000000000000, 0.000000000000000000 ) ) ;
#297 = CIRCLE ( 'NONE', #344, 6.999999999999992895 ) ;
#298 = AXIS2_PLACEMENT_3D ( 'NONE', #336, #58, #25 ) ;
#299 = EDGE_LOOP ( 'NONE', ( #229, #352, #121, #242 ) ) ;
#300 = SURFACE_STYLE_FILL_AREA ( #95 ) ;
#301 = AXIS2_PLACEMENT_3D ( 'NONE', #235, #18, #386 ) ;
#302 = DIRECTION ( 'NONE',  ( 3.491481338843133355E-15, -1.000000000000000000, 0.000000000000000000 ) ) ;
#303 = CYLINDRICAL_SURFACE ( 'NONE', #127, 6.999999999999996447 ) ;
#304 = ORIENTED_EDGE ( 'NONE', *, *, #239, .F. ) ;
#305 = DIRECTION ( 'NONE',  ( 0.000000000000000000, 0.000000000000000000, 1.000000000000000000 ) ) ;
#306 = EDGE_CURVE ( 'NONE', #45, #277, #297, .T. ) ;
#307 = CONICAL_SURFACE ( 'NONE', #176, 5.772999999999992582, 0.7853981633974490562 ) ;
#308 = ORIENTED_EDGE ( 'NONE', *, *, #52, .F. ) ;
#309 = SURFACE_SIDE_STYLE ('',( #300 ) ) ;
#310 = VERTEX_POINT ( 'NONE', #114 ) ;
#311 = DIRECTION ( 'NONE',  ( 3.491481338843133355E-15, -1.000000000000000000, 0.000000000000000000 ) ) ;
#312 = FACE_OUTER_BOUND ( 'NONE', #224, .T. ) ;
#313 = DIRECTION ( 'NONE',  ( -3.491481338843133355E-15, 1.000000000000000000, 0.000000000000000000 ) ) ;
#314 = EDGE_LOOP ( 'NONE', ( #119, #340 ) ) ;
#315 = VECTOR ( 'NONE', #120, 1000.000000000000000 ) ;
#316 = DIRECTION ( 'NONE',  ( 0.000000000000000000, 0.000000000000000000, 1.000000000000000000 ) ) ;
#317 = CLOSED_SHELL ( 'NONE', ( #356, #335, #276, #30, #67, #293, #223, #149, #385, #205, #85, #20, #36, #28 ) ) ;
#318 = EDGE_CURVE ( 'NONE', #163, #378, #66, .T. ) ;
#319 = ORIENTED_EDGE ( 'NONE', *, *, #112, .T. ) ;
#320 = DIRECTION ( 'NONE',  ( 3.491481338843133355E-15, -1.000000000000000000, 0.000000000000000000 ) ) ;
#321 = CIRCLE ( 'NONE', #183, 5.772999999999992582 ) ;
#322 = FACE_OUTER_BOUND ( 'NONE', #56, .T. ) ;
#323 = EDGE_CURVE ( 'NONE', #42, #191, #77, .T. ) ;
#324 = CARTESIAN_POINT ( 'NONE',  ( -7.540876937517312673E-16, -2.993082012127869798E-30, -6.999999999999996447 ) ) ;
#325 = CARTESIAN_POINT ( 'NONE',  ( -6.038235314963505849E-16, -2.468437493716311198E-30, -5.772999999999992582 ) ) ;
#326 = DIRECTION ( 'NONE',  ( 2.468850131082265738E-15, -0.7071067811865475727, 0.7071067811865474617 ) ) ;
#327 = DIRECTION ( 'NONE',  ( 0.000000000000000000, 0.000000000000000000, 1.000000000000000000 ) ) ;
#328 = VECTOR ( 'NONE', #373, 1000.000000000000000 ) ;
#329 = DIRECTION ( 'NONE',  ( 3.491481338843133355E-15, -1.000000000000000000, 0.000000000000000000 ) ) ;
#330 = FACE_OUTER_BOUND ( 'NONE', #271, .T. ) ;
#331 = AXIS2_PLACEMENT_3D ( 'NONE', #10, #41, #286 ) ;
#332 = VERTEX_POINT ( 'NONE', #111 ) ;
#333 = FACE_OUTER_BOUND ( 'NONE', #345, .T. ) ;
#334 = EDGE_CURVE ( 'NONE', #215, #254, #240, .T. ) ;
#335 = ADVANCED_FACE ( 'CYL_1', ( #175 ), #23, .T. ) ;
#336 = CARTESIAN_POINT ( 'NONE',  ( -3.000000000000000000, -1.040834085586084257E-14, 0.000000000000000000 ) ) ;
#337 = VERTEX_POINT ( 'NONE', #19 ) ;
#338 = FACE_OUTER_BOUND ( 'NONE', #189, .T. ) ;
#339 = VECTOR ( 'NONE', #139, 1000.000000000000000 ) ;
#340 = ORIENTED_EDGE ( 'NONE', *, *, #318, .F. ) ;
#341 = DIRECTION ( 'NONE',  ( 3.491481338843133355E-15, -1.000000000000000000, 0.000000000000000000 ) ) ;
#342 = ORIENTED_EDGE ( 'NONE', *, *, #394, .T. ) ;
#343 = DIRECTION ( 'NONE',  ( 3.491481338843133355E-15, -1.000000000000000000, 0.000000000000000000 ) ) ;
#344 = AXIS2_PLACEMENT_3D ( 'NONE', #80, #329, #171 ) ;
#345 = EDGE_LOOP ( 'NONE', ( #285, #94 ) ) ;
#346 = ORIENTED_EDGE ( 'NONE', *, *, #253, .T. ) ;
#347 = DIRECTION ( 'NONE',  ( 3.491481338843133355E-15, -1.000000000000000000, 0.000000000000000000 ) ) ;
#348 = CONICAL_SURFACE ( 'NONE', #226, 7.000000000000000000, 0.7853981633974490562 ) ;
#349 = DIRECTION ( 'NONE',  ( 3.491481338843133355E-15, -1.000000000000000000, 0.000000000000000000 ) ) ;
#350 = CARTESIAN_POINT ( 'NONE',  ( -1.979143499189612324E-16, -1.051213160973767181E-30, -2.458499999999999908 ) ) ;
#351 = EDGE_CURVE ( 'NONE', #376, #37, #125, .T. ) ;
#352 = ORIENTED_EDGE ( 'NONE', *, *, #239, .T. ) ;
#353 = AXIS2_PLACEMENT_3D ( 'NONE', #382, #347, #228 ) ;
#354 = CARTESIAN_POINT ( 'NONE',  ( 1.048476052309454149E-13, -30.00000000000000000, 0.000000000000000000 ) ) ;
#355 = CIRCLE ( 'NONE', #362, 2.458499999999999908 ) ;
#356 = ADVANCED_FACE ( 'CONE_3', ( #50 ), #230, .T. ) ;
#357 = CARTESIAN_POINT ( 'NONE',  ( 1.005635576281848953E-13, -28.77299999999999969, 0.000000000000000000 ) ) ;
#358 = PRODUCT ( '1.35.1140630', '1.35.1140630', '', ( #81 ) ) ;
#359 = DIRECTION ( 'NONE',  ( 3.491481338843133355E-15, -1.000000000000000000, 0.000000000000000000 ) ) ;
#360 = SHAPE_DEFINITION_REPRESENTATION ( #96, #380 ) ;
#361 = DIRECTION ( 'NONE',  ( 3.491481338843133355E-15, -1.000000000000000000, 0.000000000000000000 ) ) ;
#362 = AXIS2_PLACEMENT_3D ( 'NONE', #231, #320, #192 ) ;
#363 =( NAMED_UNIT ( * ) SI_UNIT ( $, .STERADIAN. ) SOLID_ANGLE_UNIT ( ) );
#364 = AXIS2_PLACEMENT_3D ( 'NONE', #131, #313, #38 ) ;
#365 = CARTESIAN_POINT ( 'NONE',  ( 1.031650656514155094E-16, 0.000000000000000000, 0.000000000000000000 ) ) ;
#366 = EDGE_CURVE ( 'NONE', #37, #277, #116, .T. ) ;
#367 = PRESENTATION_LAYER_ASSIGNMENT (  '', '', ( #143 ) ) ;
#368 = CIRCLE ( 'NONE', #93, 3.000000000000000000 ) ;
#369 = CIRCLE ( 'NONE', #211, 5.772999999999999687 ) ;
#370 = ORIENTED_EDGE ( 'NONE', *, *, #32, .T. ) ;
#371 = VECTOR ( 'NONE', #73, 1000.000000000000000 ) ;
#372 = EDGE_LOOP ( 'NONE', ( #245, #108, #248, #60 ) ) ;
#373 = DIRECTION ( 'NONE',  ( 2.468850131082263766E-15, -0.7071067811865470176, 0.7071067811865481278 ) ) ;
#374 = ORIENTED_EDGE ( 'NONE', *, *, #151, .F. ) ;
#375 = DIRECTION ( 'NONE',  ( 3.491481338843133355E-15, -1.000000000000000000, 0.000000000000000000 ) ) ;
#376 = VERTEX_POINT ( 'NONE', #241 ) ;
#377 = DIRECTION ( 'NONE',  ( -2.468850131082261794E-15, 0.7071067811865463515, -0.7071067811865487940 ) ) ;
#378 = VERTEX_POINT ( 'NONE', #206 ) ;
#379 = DIRECTION ( 'NONE',  ( 3.491481338843133355E-15, -1.000000000000000000, 0.000000000000000000 ) ) ;
#380 = ADVANCED_BREP_SHAPE_REPRESENTATION ( '1.35.1140630', ( #33, #272 ), #22 ) ;
#381 = EDGE_LOOP ( 'NONE', ( #273, #290, #287, #158 ) ) ;
#382 = CARTESIAN_POINT ( 'NONE',  ( 1.005635576281848953E-13, -28.77299999999999969, 0.000000000000000000 ) ) ;
#383 = CONICAL_SURFACE ( 'NONE', #222, 3.000000000000000000, 0.7853981633974482790 ) ;
#384 = LINE ( 'NONE', #350, #165 ) ;
#385 = ADVANCED_FACE ( 'CYL_0', ( #330 ), #170, .F. ) ;
#386 = DIRECTION ( 'NONE',  ( 0.000000000000000000, 0.000000000000000000, 1.000000000000000000 ) ) ;
#387 = LINE ( 'NONE', #324, #202 ) ;
#388 = LINE ( 'NONE', #236, #315 ) ;
#389 = FACE_OUTER_BOUND ( 'NONE', #372, .T. ) ;
#390 = DIRECTION ( 'NONE',  ( -3.491481338843133355E-15, 1.000000000000000000, 0.000000000000000000 ) ) ;
#391 =( LENGTH_UNIT ( ) NAMED_UNIT ( * ) SI_UNIT ( .MILLI., .METRE. ) );
#392 = CIRCLE ( 'NONE', #74, 3.000000000000000000 ) ;
#393 = VERTEX_POINT ( 'NONE', #142 ) ;
#394 = EDGE_CURVE ( 'NONE', #393, #215, #388, .T. ) ;
#395 = DIRECTION ( 'NONE',  ( 2.382254525458714314E-15, -0.7071067811865470176, -0.7071067811865481278 ) ) ;
#396 = DIRECTION ( 'NONE',  ( 0.000000000000000000, 0.000000000000000000, 1.000000000000000000 ) ) ;
#397 = AXIS2_PLACEMENT_3D ( 'NONE', #278, #279, #61 ) ;
#398 = DIRECTION ( 'NONE',  ( -3.491481338843133355E-15, 1.000000000000000000, 0.000000000000000000 ) ) ;
#399 = DIRECTION ( 'NONE',  ( 3.491481338843133355E-15, -1.000000000000000000, 0.000000000000000000 ) ) ;
ENDSEC;
END-ISO-10303-21;
