ISO-10303-21;
HEADER;
FILE_DESCRIPTION (( 'STEP AP214' ),
    '1' );
FILE_NAME ('1.35.1140615.STEP',
    '2024-10-11T20:19:55',
    ( '' ),
    ( '' ),
    'SwSTEP 2.0',
    'SolidWorks 2024',
    '' );
FILE_SCHEMA (( 'AUTOMOTIVE_DESIGN' ));
ENDSEC;

DATA;
#1 = AXIS2_PLACEMENT_3D ( 'NONE', #294, #291, #166 ) ;
#2 = CARTESIAN_POINT ( 'NONE',  ( 1.194645221433412201E-15, 4.748076376954923509E-30, -5.772999999999992582 ) ) ;
#3 = FACE_BOUND ( 'NONE', #128, .T. ) ;
#4 = ORIENTED_EDGE ( 'NONE', *, *, #226, .F. ) ;
#5 = FILL_AREA_STYLE ('',( #283 ) ) ;
#6 = VERTEX_POINT ( 'NONE', #192 ) ;
#7 = ORIENTED_EDGE ( 'NONE', *, *, #353, .T. ) ;
#8 = LINE ( 'NONE', #162, #63 ) ;
#9 = AXIS2_PLACEMENT_3D ( 'NONE', #231, #379, #100 ) ;
#10 = VERTEX_POINT ( 'NONE', #160 ) ;
#11 = EDGE_CURVE ( 'NONE', #190, #6, #109, .T. ) ;
#12 = ORIENTED_EDGE ( 'NONE', *, *, #181, .F. ) ;
#13 =( NAMED_UNIT ( * ) PLANE_ANGLE_UNIT ( ) SI_UNIT ( $, .RADIAN. ) );
#14 = CARTESIAN_POINT ( 'NONE',  ( 1.725379243312163445E-15, -0.5414999999999994262, 0.000000000000000000 ) ) ;
#15 = MECHANICAL_DESIGN_GEOMETRIC_PRESENTATION_REPRESENTATION (  '', ( #116 ), #396 ) ;
#16 = FACE_OUTER_BOUND ( 'NONE', #195, .T. ) ;
#17 = VECTOR ( 'NONE', #271, 1000.000000000000000 ) ;
#18 = DIRECTION ( 'NONE',  ( 3.491481338843133355E-15, -1.000000000000000000, 0.000000000000000000 ) ) ;
#19 = CARTESIAN_POINT ( 'NONE',  ( 5.183956814123140114E-14, -15.00000000000000000, -3.000000000000000000 ) ) ;
#20 = CARTESIAN_POINT ( 'NONE',  ( -1.652579016713931321E-16, 0.000000000000000000, 0.000000000000000000 ) ) ;
#21 = CARTESIAN_POINT ( 'NONE',  ( 5.183956814123140114E-14, -15.00000000000000000, -3.000000000000000000 ) ) ;
#22 = EDGE_CURVE ( 'NONE', #129, #230, #8, .T. ) ;
#23 = DIRECTION ( 'NONE',  ( -2.555445736705814795E-15, 0.7071067811865473507, 0.7071067811865477948 ) ) ;
#24 = UNCERTAINTY_MEASURE_WITH_UNIT (LENGTH_MEASURE( 1.000000000000000082E-05 ), #324, 'distance_accuracy_value', 'NONE');
#25 = EDGE_CURVE ( 'NONE', #230, #10, #250, .T. ) ;
#26 = CARTESIAN_POINT ( 'NONE',  ( -1.022510661074539983E-15, -2.993082012127869798E-30, -6.999999999999996447 ) ) ;
#27 = AXIS2_PLACEMENT_3D ( 'NONE', #87, #337, #214 ) ;
#28 = MANIFOLD_SOLID_BREP ( 'Body-Move/Copy2', #284 ) ;
#29 = DIRECTION ( 'NONE',  ( -2.468850131082265344E-15, 0.7071067811865473507, -0.7071067811865477948 ) ) ;
#30 = CIRCLE ( 'NONE', #260, 2.458499999999999908 ) ;
#31 = FACE_OUTER_BOUND ( 'NONE', #68, .T. ) ;
#32 = EDGE_LOOP ( 'NONE', ( #349, #372, #375, #303 ) ) ;
#33 = AXIS2_PLACEMENT_3D ( 'NONE', #108, #137, #385 ) ;
#34 = CARTESIAN_POINT ( 'NONE',  ( -1.652579016713931321E-16, 0.000000000000000000, 0.000000000000000000 ) ) ;
#35 = ORIENTED_EDGE ( 'NONE', *, *, #335, .T. ) ;
#36 = SURFACE_STYLE_USAGE ( .BOTH. , #223 ) ;
#37 = PRODUCT_DEFINITION ( 'UNKNOWN', '', #241, #130 ) ;
#38 = ORIENTED_EDGE ( 'NONE', *, *, #117, .T. ) ;
#39 = DIRECTION ( 'NONE',  ( 3.491481338843133355E-15, -1.000000000000000000, 0.000000000000000000 ) ) ;
#40 = ORIENTED_EDGE ( 'NONE', *, *, #236, .T. ) ;
#41 = ADVANCED_FACE ( 'CONE_2', ( #202 ), #329, .T. ) ;
#42 = AXIS2_PLACEMENT_3D ( 'NONE', #252, #212, #54 ) ;
#43 = EDGE_LOOP ( 'NONE', ( #286, #380, #164, #60 ) ) ;
#44 = CYLINDRICAL_SURFACE ( 'NONE', #279, 6.999999999999996447 ) ;
#45 = FACE_OUTER_BOUND ( 'NONE', #233, .T. ) ;
#46 = CARTESIAN_POINT ( 'NONE',  ( 5.031632503599204327E-14, -14.45849999999999902, 2.458499999999999908 ) ) ;
#47 = CARTESIAN_POINT ( 'NONE',  ( -1.652579016713931321E-16, 0.000000000000000000, 6.999999999999996447 ) ) ;
#48 = CIRCLE ( 'NONE', #140, 3.000000000000000000 ) ;
#49 = CONICAL_SURFACE ( 'NONE', #297, 2.458499999999999908, 0.7853981633974490562 ) ;
#50 = DIRECTION ( 'NONE',  ( 3.491481338843133355E-15, -1.000000000000000000, 0.000000000000000000 ) ) ;
#51 = DIRECTION ( 'NONE',  ( 3.491481338843133355E-15, -1.000000000000000000, 0.000000000000000000 ) ) ;
#52 = ADVANCED_FACE ( 'CYL_1', ( #69 ), #382, .T. ) ;
#53 = CARTESIAN_POINT ( 'NONE',  ( 5.220696218097560658E-14, -15.00000000000000000, 0.000000000000000000 ) ) ;
#54 = DIRECTION ( 'NONE',  ( 0.000000000000000000, 0.000000000000000000, 1.000000000000000000 ) ) ;
#55 = LINE ( 'NONE', #151, #363 ) ;
#56 = LINE ( 'NONE', #306, #75 ) ;
#57 = CONICAL_SURFACE ( 'NONE', #61, 3.000000000000000000, 0.7853981633974482790 ) ;
#58 = CARTESIAN_POINT ( 'NONE',  ( 4.118789701089132204E-15, -1.226999999999999869, 0.000000000000000000 ) ) ;
#59 = CARTESIAN_POINT ( 'NONE',  ( -1.652579016713931321E-16, 0.000000000000000000, 0.000000000000000000 ) ) ;
#60 = ORIENTED_EDGE ( 'NONE', *, *, #183, .F. ) ;
#61 = AXIS2_PLACEMENT_3D ( 'NONE', #53, #157, #178 ) ;
#62 = CIRCLE ( 'NONE', #76, 2.458499999999999908 ) ;
#63 = VECTOR ( 'NONE', #186, 1000.000000000000000 ) ;
#64 = EDGE_LOOP ( 'NONE', ( #345, #352, #322, #187 ) ) ;
#65 = VERTEX_POINT ( 'NONE', #293 ) ;
#66 = ORIENTED_EDGE ( 'NONE', *, *, #171, .F. ) ;
#67 = DIRECTION ( 'NONE',  ( 0.000000000000000000, -0.000000000000000000, -1.000000000000000000 ) ) ;
#68 = EDGE_LOOP ( 'NONE', ( #12, #193, #168, #314 ) ) ;
#69 = FACE_OUTER_BOUND ( 'NONE', #262, .T. ) ;
#70 = FACE_OUTER_BOUND ( 'NONE', #95, .T. ) ;
#71 =( LENGTH_UNIT ( ) NAMED_UNIT ( * ) SI_UNIT ( .MILLI., .METRE. ) );
#72 = DIRECTION ( 'NONE',  ( 3.491481338843133355E-15, -1.000000000000000000, 0.000000000000000000 ) ) ;
#73 = CARTESIAN_POINT ( 'NONE',  ( 4.792291457821508063E-14, -13.77299999999999969, 0.000000000000000000 ) ) ;
#74 = EDGE_CURVE ( 'NONE', #129, #321, #213, .T. ) ;
#75 = VECTOR ( 'NONE', #29, 999.9999999999998863 ) ;
#76 = AXIS2_PLACEMENT_3D ( 'NONE', #239, #146, #144 ) ;
#77 = DIRECTION ( 'NONE',  ( 0.000000000000000000, 0.000000000000000000, -1.000000000000000000 ) ) ;
#78 = ADVANCED_FACE ( 'PLANAR_0', ( #327, #45 ), #198, .F. ) ;
#79 = ADVANCED_FACE ( 'CONE_3', ( #139 ), #390, .T. ) ;
#80 = DIRECTION ( 'NONE',  ( 2.468850131082263766E-15, -0.7071067811865470176, 0.7071067811865481278 ) ) ;
#81 = CARTESIAN_POINT ( 'NONE',  ( 5.220696218097560658E-14, -15.00000000000000000, 0.000000000000000000 ) ) ;
#82 = AXIS2_PLACEMENT_3D ( 'NONE', #203, #72, #328 ) ;
#83 = AXIS2_PLACEMENT_3D ( 'NONE', #391, #111, #299 ) ;
#84 = DIRECTION ( 'NONE',  ( 3.491481338843133355E-15, -1.000000000000000000, 0.000000000000000000 ) ) ;
#85 = ADVANCED_BREP_SHAPE_REPRESENTATION ( '1.35.1140615', ( #28, #9 ), #358 ) ;
#86 = DIRECTION ( 'NONE',  ( 3.491481338843133355E-15, -1.000000000000000000, 0.000000000000000000 ) ) ;
#87 = CARTESIAN_POINT ( 'NONE',  ( -1.652579016713931321E-16, 0.000000000000000000, 0.000000000000000000 ) ) ;
#88 = CIRCLE ( 'NONE', #295, 2.458499999999999908 ) ;
#89 = ORIENTED_EDGE ( 'NONE', *, *, #90, .F. ) ;
#90 = EDGE_CURVE ( 'NONE', #259, #65, #156, .T. ) ;
#91 = VERTEX_POINT ( 'NONE', #389 ) ;
#92 = ORIENTED_EDGE ( 'NONE', *, *, #261, .T. ) ;
#93 = ADVANCED_FACE ( 'CYL_0', ( #174 ), #110, .F. ) ;
#94 = DIRECTION ( 'NONE',  ( 0.000000000000000000, 0.000000000000000000, 1.000000000000000000 ) ) ;
#95 = EDGE_LOOP ( 'NONE', ( #188, #287, #289, #127 ) ) ;
#96 = AXIS2_PLACEMENT_3D ( 'NONE', #359, #309, #180 ) ;
#97 = EDGE_LOOP ( 'NONE', ( #292, #133 ) ) ;
#98 = CIRCLE ( 'NONE', #315, 6.999999999999999112 ) ;
#99 = ORIENTED_EDGE ( 'NONE', *, *, #113, .F. ) ;
#100 = DIRECTION ( 'NONE',  ( 1.000000000000000000, 0.000000000000000000, 0.000000000000000000 ) ) ;
#101 = AXIS2_PLACEMENT_3D ( 'NONE', #268, #388, #169 ) ;
#102 = DIRECTION ( 'NONE',  ( 0.000000000000000000, 0.000000000000000000, 1.000000000000000000 ) ) ;
#103 = ORIENTED_EDGE ( 'NONE', *, *, #125, .F. ) ;
#104 = DIRECTION ( 'NONE',  ( 3.491481338843133355E-15, -1.000000000000000000, 0.000000000000000000 ) ) ;
#105 = DIRECTION ( 'NONE',  ( 2.382254525458716286E-15, -0.7071067811865475727, -0.7071067811865474617 ) ) ;
#106 = CARTESIAN_POINT ( 'NONE',  ( 1.725379243312163445E-15, -0.5414999999999994262, 0.000000000000000000 ) ) ;
#107 = CARTESIAN_POINT ( 'NONE',  ( 2.571977272408172383E-14, -0.5414999999999994262, -2.458499999999999908 ) ) ;
#108 = CARTESIAN_POINT ( 'NONE',  ( -1.652579016713931321E-16, 0.000000000000000000, 0.000000000000000000 ) ) ;
#109 = CIRCLE ( 'NONE', #317, 3.000000000000000000 ) ;
#110 = CYLINDRICAL_SURFACE ( 'NONE', #175, 2.458499999999999908 ) ;
#111 = DIRECTION ( 'NONE',  ( 3.491481338843133355E-15, -1.000000000000000000, 0.000000000000000000 ) ) ;
#112 = DIRECTION ( 'NONE',  ( -3.491481338843133355E-15, 1.000000000000000000, 0.000000000000000000 ) ) ;
#113 = EDGE_CURVE ( 'NONE', #321, #129, #62, .T. ) ;
#114 = DIRECTION ( 'NONE',  ( 0.000000000000000000, 0.000000000000000000, 1.000000000000000000 ) ) ;
#115 = CARTESIAN_POINT ( 'NONE',  ( 4.118789701089130626E-15, -1.226999999999999869, 6.999999999999993783 ) ) ;
#116 = STYLED_ITEM ( 'NONE', ( #194 ), #28 ) ;
#117 = EDGE_CURVE ( 'NONE', #163, #6, #333, .T. ) ;
#118 = CARTESIAN_POINT ( 'NONE',  ( -1.652579016713931321E-16, 0.000000000000000000, 5.772999999999992582 ) ) ;
#119 = VECTOR ( 'NONE', #80, 1000.000000000000000 ) ;
#120 = CIRCLE ( 'NONE', #225, 5.772999999999992582 ) ;
#121 = CARTESIAN_POINT ( 'NONE',  ( 5.031632503599204327E-14, -14.45849999999999902, 0.000000000000000000 ) ) ;
#122 = FACE_OUTER_BOUND ( 'NONE', #310, .T. ) ;
#123 = PRODUCT_RELATED_PRODUCT_CATEGORY ( 'part', '', ( #351 ) ) ;
#124 = CARTESIAN_POINT ( 'NONE',  ( 4.706566181881194090E-14, -13.77299999999999969, 6.999999999999999112 ) ) ;
#125 = EDGE_CURVE ( 'NONE', #221, #319, #365, .T. ) ;
#126 = VERTEX_POINT ( 'NONE', #138 ) ;
#127 = ORIENTED_EDGE ( 'NONE', *, *, #335, .F. ) ;
#128 = EDGE_LOOP ( 'NONE', ( #227, #346 ) ) ;
#129 = VERTEX_POINT ( 'NONE', #107 ) ;
#130 = PRODUCT_DEFINITION_CONTEXT ( 'detailed design', #165, 'design' ) ;
#131 = ORIENTED_EDGE ( 'NONE', *, *, #342, .T. ) ;
#132 = ORIENTED_EDGE ( 'NONE', *, *, #226, .T. ) ;
#133 = ORIENTED_EDGE ( 'NONE', *, *, #11, .F. ) ;
#134 = ORIENTED_EDGE ( 'NONE', *, *, #90, .T. ) ;
#135 = ORIENTED_EDGE ( 'NONE', *, *, #167, .T. ) ;
#136 =( NAMED_UNIT ( * ) SI_UNIT ( $, .STERADIAN. ) SOLID_ANGLE_UNIT ( ) );
#137 = DIRECTION ( 'NONE',  ( 3.491481338843133355E-15, -1.000000000000000000, 0.000000000000000000 ) ) ;
#138 = CARTESIAN_POINT ( 'NONE',  ( 5.092740688082653407E-14, -14.45849999999999902, -2.458499999999999908 ) ) ;
#139 = FACE_OUTER_BOUND ( 'NONE', #253, .T. ) ;
#140 = AXIS2_PLACEMENT_3D ( 'NONE', #275, #84, #179 ) ;
#141 = FACE_OUTER_BOUND ( 'NONE', #32, .T. ) ;
#142 = VECTOR ( 'NONE', #273, 1000.000000000000000 ) ;
#143 = AXIS2_PLACEMENT_3D ( 'NONE', #59, #316, #102 ) ;
#144 = DIRECTION ( 'NONE',  ( 0.000000000000000000, 0.000000000000000000, 1.000000000000000000 ) ) ;
#145 = DIRECTION ( 'NONE',  ( 0.000000000000000000, 0.000000000000000000, -1.000000000000000000 ) ) ;
#146 = DIRECTION ( 'NONE',  ( 3.491481338843133355E-15, -1.000000000000000000, 0.000000000000000000 ) ) ;
#147 = VECTOR ( 'NONE', #217, 1000.000000000000000 ) ;
#148 = DIRECTION ( 'NONE',  ( 0.000000000000000000, 0.000000000000000000, 1.000000000000000000 ) ) ;
#149 = ADVANCED_FACE ( 'CONE_1', ( #207 ), #49, .F. ) ;
#150 = DIRECTION ( 'NONE',  ( 3.491481338843133355E-15, -1.000000000000000000, 0.000000000000000000 ) ) ;
#151 = CARTESIAN_POINT ( 'NONE',  ( 1.424299827741786580E-15, -0.5414999999999994262, 2.458499999999999908 ) ) ;
#152 = VECTOR ( 'NONE', #23, 999.9999999999998863 ) ;
#153 = EDGE_CURVE ( 'NONE', #369, #224, #120, .T. ) ;
#154 = VECTOR ( 'NONE', #332, 1000.000000000000000 ) ;
#155 = CARTESIAN_POINT ( 'NONE',  ( 4.118789701089132204E-15, -1.226999999999999869, 0.000000000000000000 ) ) ;
#156 = CIRCLE ( 'NONE', #238, 6.999999999999999112 ) ;
#157 = DIRECTION ( 'NONE',  ( 3.491481338843133355E-15, -1.000000000000000000, 0.000000000000000000 ) ) ;
#158 = ADVANCED_FACE ( 'CYL_1', ( #356 ), #44, .T. ) ;
#159 = ORIENTED_EDGE ( 'NONE', *, *, #311, .T. ) ;
#160 = CARTESIAN_POINT ( 'NONE',  ( -5.326519414155973193E-16, 0.000000000000000000, 3.000000000000000000 ) ) ;
#161 = ORIENTED_EDGE ( 'NONE', *, *, #342, .F. ) ;
#162 = CARTESIAN_POINT ( 'NONE',  ( 1.725379243312163445E-15, -0.5414999999999994262, -2.458499999999999908 ) ) ;
#163 = VERTEX_POINT ( 'NONE', #46 ) ;
#164 = ORIENTED_EDGE ( 'NONE', *, *, #22, .T. ) ;
#165 = APPLICATION_CONTEXT ( 'automotive_design' ) ;
#166 = DIRECTION ( 'NONE',  ( 0.000000000000000000, 0.000000000000000000, 1.000000000000000000 ) ) ;
#167 = EDGE_CURVE ( 'NONE', #129, #126, #296, .T. ) ;
#168 = ORIENTED_EDGE ( 'NONE', *, *, #11, .T. ) ;
#169 = DIRECTION ( 'NONE',  ( 0.000000000000000000, 0.000000000000000000, -1.000000000000000000 ) ) ;
#170 = DIRECTION ( 'NONE',  ( -3.491481338843133355E-15, 1.000000000000000000, 0.000000000000000000 ) ) ;
#171 = EDGE_CURVE ( 'NONE', #65, #259, #98, .T. ) ;
#172 = ADVANCED_FACE ( 'CONE_1', ( #141 ), #378, .F. ) ;
#173 = CIRCLE ( 'NONE', #248, 6.999999999999993783 ) ;
#174 = FACE_OUTER_BOUND ( 'NONE', #211, .T. ) ;
#175 = AXIS2_PLACEMENT_3D ( 'NONE', #20, #18, #244 ) ;
#176 = DIRECTION ( 'NONE',  ( 0.000000000000000000, 0.000000000000000000, 1.000000000000000000 ) ) ;
#177 = CARTESIAN_POINT ( 'NONE',  ( -4.663373172417698246E-16, -1.051213160973767181E-30, -2.458499999999999908 ) ) ;
#178 = DIRECTION ( 'NONE',  ( 0.000000000000000000, 0.000000000000000000, 1.000000000000000000 ) ) ;
#179 = DIRECTION ( 'NONE',  ( 0.000000000000000000, 0.000000000000000000, 1.000000000000000000 ) ) ;
#180 = DIRECTION ( 'NONE',  ( 0.000000000000000000, 0.000000000000000000, 1.000000000000000000 ) ) ;
#181 = EDGE_CURVE ( 'NONE', #126, #163, #30, .T. ) ;
#182 = CARTESIAN_POINT ( 'NONE',  ( 4.928281770131988421E-14, -15.00000000000000000, 5.772999999999999687 ) ) ;
#183 = EDGE_CURVE ( 'NONE', #10, #230, #308, .T. ) ;
#184 = LINE ( 'NONE', #118, #119 ) ;
#185 = ORIENTED_EDGE ( 'NONE', *, *, #243, .F. ) ;
#186 = DIRECTION ( 'NONE',  ( -2.468850131082263766E-15, 0.7071067811865470176, -0.7071067811865481278 ) ) ;
#187 = ORIENTED_EDGE ( 'NONE', *, *, #339, .F. ) ;
#188 = ORIENTED_EDGE ( 'NONE', *, *, #318, .F. ) ;
#189 = UNCERTAINTY_MEASURE_WITH_UNIT (LENGTH_MEASURE( 1.000000000000000082E-05 ), #71, 'distance_accuracy_value', 'NONE');
#190 = VERTEX_POINT ( 'NONE', #19 ) ;
#191 = ORIENTED_EDGE ( 'NONE', *, *, #181, .T. ) ;
#192 = CARTESIAN_POINT ( 'NONE',  ( 5.220696218097560658E-14, -15.00000000000000000, 3.000000000000000000 ) ) ;
#193 = ORIENTED_EDGE ( 'NONE', *, *, #384, .T. ) ;
#194 = PRESENTATION_STYLE_ASSIGNMENT (( #36 ) ) ;
#195 = EDGE_LOOP ( 'NONE', ( #373, #103, #131, #134 ) ) ;
#196 = APPLICATION_PROTOCOL_DEFINITION ( 'draft international standard', 'automotive_design', 1998, #165 ) ;
#197 = ADVANCED_FACE ( 'CONE_2', ( #70 ), #206, .T. ) ;
#198 = PLANE ( 'NONE',  #265 ) ;
#199 = CARTESIAN_POINT ( 'NONE',  ( 1.725379243312163445E-15, -0.5414999999999994262, 0.000000000000000000 ) ) ;
#200 = ORIENTED_EDGE ( 'NONE', *, *, #274, .F. ) ;
#201 =( NAMED_UNIT ( * ) PLANE_ANGLE_UNIT ( ) SI_UNIT ( $, .RADIAN. ) );
#202 = FACE_OUTER_BOUND ( 'NONE', #64, .T. ) ;
#203 = CARTESIAN_POINT ( 'NONE',  ( -1.652579016713931321E-16, 0.000000000000000000, 0.000000000000000000 ) ) ;
#204 = ADVANCED_FACE ( 'CONE_3', ( #16 ), #393, .T. ) ;
#205 = CARTESIAN_POINT ( 'NONE',  ( 4.792291457821508063E-14, -13.77299999999999969, 0.000000000000000000 ) ) ;
#206 = CONICAL_SURFACE ( 'NONE', #82, 5.772999999999992582, 0.7853981633974490562 ) ;
#207 = FACE_OUTER_BOUND ( 'NONE', #43, .T. ) ;
#208 = AXIS2_PLACEMENT_3D ( 'NONE', #199, #112, #354 ) ;
#209 = LINE ( 'NONE', #47, #17 ) ;
#210 = PRODUCT_DEFINITION_SHAPE ( 'NONE', 'NONE',  #37 ) ;
#211 = EDGE_LOOP ( 'NONE', ( #312, #135, #191, #222 ) ) ;
#212 = DIRECTION ( 'NONE',  ( 3.491481338843133355E-15, -1.000000000000000000, 0.000000000000000000 ) ) ;
#213 = CIRCLE ( 'NONE', #361, 2.458499999999999908 ) ;
#214 = DIRECTION ( 'NONE',  ( 0.000000000000000000, 0.000000000000000000, 1.000000000000000000 ) ) ;
#215 = CIRCLE ( 'NONE', #219, 5.772999999999999687 ) ;
#216 = CARTESIAN_POINT ( 'NONE',  ( 2.516359938024895091E-14, -13.77299999999999969, -7.000000000000000000 ) ) ;
#217 = DIRECTION ( 'NONE',  ( 3.491481338843133355E-15, -1.000000000000000000, 0.000000000000000000 ) ) ;
#218 = PLANE ( 'NONE',  #42 ) ;
#219 = AXIS2_PLACEMENT_3D ( 'NONE', #81, #150, #397 ) ;
#220 = ORIENTED_EDGE ( 'NONE', *, *, #167, .F. ) ;
#221 = VERTEX_POINT ( 'NONE', #269 ) ;
#222 = ORIENTED_EDGE ( 'NONE', *, *, #277, .F. ) ;
#223 = SURFACE_SIDE_STYLE ('',( #228 ) ) ;
#224 = VERTEX_POINT ( 'NONE', #330 ) ;
#225 = AXIS2_PLACEMENT_3D ( 'NONE', #357, #51, #235 ) ;
#226 = EDGE_CURVE ( 'NONE', #256, #65, #209, .T. ) ;
#227 = ORIENTED_EDGE ( 'NONE', *, *, #25, .T. ) ;
#228 = SURFACE_STYLE_FILL_AREA ( #5 ) ;
#229 = ADVANCED_FACE ( 'CONE_0', ( #242 ), #398, .F. ) ;
#230 = VERTEX_POINT ( 'NONE', #336 ) ;
#231 = CARTESIAN_POINT ( 'NONE',  ( 0.000000000000000000, 0.000000000000000000, 0.000000000000000000 ) ) ;
#232 = CARTESIAN_POINT ( 'NONE',  ( -5.772999999999947285, -15.00000000000001954, 0.000000000000000000 ) ) ;
#233 = EDGE_LOOP ( 'NONE', ( #323, #159 ) ) ;
#234 = DIRECTION ( 'NONE',  ( 0.000000000000000000, 0.000000000000000000, 1.000000000000000000 ) ) ;
#235 = DIRECTION ( 'NONE',  ( 0.000000000000000000, 0.000000000000000000, 1.000000000000000000 ) ) ;
#236 = EDGE_CURVE ( 'NONE', #163, #126, #88, .T. ) ;
#237 = CARTESIAN_POINT ( 'NONE',  ( 4.792291457821508063E-14, -13.77299999999999969, 0.000000000000000000 ) ) ;
#238 = AXIS2_PLACEMENT_3D ( 'NONE', #237, #394, #114 ) ;
#239 = CARTESIAN_POINT ( 'NONE',  ( 1.725379243312163445E-15, -0.5414999999999994262, 0.000000000000000000 ) ) ;
#240 = DIRECTION ( 'NONE',  ( 0.000000000000000000, 0.000000000000000000, 1.000000000000000000 ) ) ;
#241 = PRODUCT_DEFINITION_FORMATION_WITH_SPECIFIED_SOURCE ( 'ANY', '', #351, .NOT_KNOWN. ) ;
#242 = FACE_OUTER_BOUND ( 'NONE', #343, .T. ) ;
#243 = EDGE_CURVE ( 'NONE', #91, #259, #364, .T. ) ;
#244 = DIRECTION ( 'NONE',  ( 0.000000000000000000, 0.000000000000000000, 1.000000000000000000 ) ) ;
#245 = EDGE_CURVE ( 'NONE', #6, #190, #48, .T. ) ;
#246 = DIRECTION ( 'NONE',  ( 0.000000000000000000, 0.000000000000000000, 1.000000000000000000 ) ) ;
#247 = DIRECTION ( 'NONE',  ( 3.491481338843133355E-15, -1.000000000000000000, 0.000000000000000000 ) ) ;
#248 = AXIS2_PLACEMENT_3D ( 'NONE', #58, #399, #338 ) ;
#249 = DIRECTION ( 'NONE',  ( 3.491481338843133355E-15, -1.000000000000000000, 0.000000000000000000 ) ) ;
#250 = CIRCLE ( 'NONE', #143, 3.000000000000000000 ) ;
#251 = CARTESIAN_POINT ( 'NONE',  ( -8.722464988191591032E-16, -2.468437493716311198E-30, -5.772999999999992582 ) ) ;
#252 = CARTESIAN_POINT ( 'NONE',  ( -3.000000000000000000, -1.040834085586084257E-14, 0.000000000000000000 ) ) ;
#253 = EDGE_LOOP ( 'NONE', ( #255, #92, #326, #161 ) ) ;
#254 = EDGE_LOOP ( 'NONE', ( #7, #288, #66, #4 ) ) ;
#255 = ORIENTED_EDGE ( 'NONE', *, *, #311, .F. ) ;
#256 = VERTEX_POINT ( 'NONE', #115 ) ;
#257 = AXIS2_PLACEMENT_3D ( 'NONE', #340, #280, #246 ) ;
#258 = SHAPE_DEFINITION_REPRESENTATION ( #210, #85 ) ;
#259 = VERTEX_POINT ( 'NONE', #216 ) ;
#260 = AXIS2_PLACEMENT_3D ( 'NONE', #325, #50, #176 ) ;
#261 = EDGE_CURVE ( 'NONE', #319, #65, #304, .T. ) ;
#262 = EDGE_LOOP ( 'NONE', ( #185, #35, #132, #89 ) ) ;
#263 = APPLICATION_CONTEXT ( 'automotive_design' ) ;
#264 = DIRECTION ( 'NONE',  ( 0.000000000000000000, 0.000000000000000000, 1.000000000000000000 ) ) ;
#265 = AXIS2_PLACEMENT_3D ( 'NONE', #232, #350, #67 ) ;
#266 = CARTESIAN_POINT ( 'NONE',  ( -1.652579016713931321E-16, 0.000000000000000000, 0.000000000000000000 ) ) ;
#267 = VECTOR ( 'NONE', #368, 1000.000000000000000 ) ;
#268 = CARTESIAN_POINT ( 'NONE',  ( 4.792291457821508063E-14, -13.77299999999999969, 0.000000000000000000 ) ) ;
#269 = CARTESIAN_POINT ( 'NONE',  ( 5.006493837959534676E-14, -15.00000000000000000, -5.772999999999999687 ) ) ;
#270 = DIRECTION ( 'NONE',  ( 3.491481338843133355E-15, -1.000000000000000000, 0.000000000000000000 ) ) ;
#271 = DIRECTION ( 'NONE',  ( 3.491481338843133355E-15, -1.000000000000000000, 0.000000000000000000 ) ) ;
#272 = AXIS2_PLACEMENT_3D ( 'NONE', #155, #247, #334 ) ;
#273 = DIRECTION ( 'NONE',  ( 2.468850131082265738E-15, -0.7071067811865475727, 0.7071067811865474617 ) ) ;
#274 = EDGE_CURVE ( 'NONE', #224, #369, #376, .T. ) ;
#275 = CARTESIAN_POINT ( 'NONE',  ( 5.220696218097560658E-14, -15.00000000000000000, 0.000000000000000000 ) ) ;
#276 = LINE ( 'NONE', #251, #267 ) ;
#277 = EDGE_CURVE ( 'NONE', #321, #163, #395, .T. ) ;
#278 = DIRECTION ( 'NONE',  ( -2.555445736705813218E-15, 0.7071067811865470176, 0.7071067811865481278 ) ) ;
#279 = AXIS2_PLACEMENT_3D ( 'NONE', #266, #360, #240 ) ;
#280 = DIRECTION ( 'NONE',  ( 3.491481338843133355E-15, -1.000000000000000000, 0.000000000000000000 ) ) ;
#281 = FACE_OUTER_BOUND ( 'NONE', #377, .T. ) ;
#282 = ORIENTED_EDGE ( 'NONE', *, *, #236, .F. ) ;
#283 = FILL_AREA_STYLE_COLOUR ( '', #366 ) ;
#284 = CLOSED_SHELL ( 'NONE', ( #79, #158, #41, #172, #93, #370, #78, #229, #300, #149, #298, #197, #52, #204 ) ) ;
#285 = EDGE_CURVE ( 'NONE', #321, #10, #55, .T. ) ;
#286 = ORIENTED_EDGE ( 'NONE', *, *, #285, .F. ) ;
#287 = ORIENTED_EDGE ( 'NONE', *, *, #153, .T. ) ;
#288 = ORIENTED_EDGE ( 'NONE', *, *, #243, .T. ) ;
#289 = ORIENTED_EDGE ( 'NONE', *, *, #339, .T. ) ;
#290 =( NAMED_UNIT ( * ) SI_UNIT ( $, .STERADIAN. ) SOLID_ANGLE_UNIT ( ) );
#291 = DIRECTION ( 'NONE',  ( 3.491481338843133355E-15, -1.000000000000000000, 0.000000000000000000 ) ) ;
#292 = ORIENTED_EDGE ( 'NONE', *, *, #245, .F. ) ;
#293 = CARTESIAN_POINT ( 'NONE',  ( 4.792291457821508063E-14, -13.77299999999999969, 6.999999999999999112 ) ) ;
#294 = CARTESIAN_POINT ( 'NONE',  ( 5.220696218097560658E-14, -15.00000000000000000, 0.000000000000000000 ) ) ;
#295 = AXIS2_PLACEMENT_3D ( 'NONE', #121, #86, #148 ) ;
#296 = LINE ( 'NONE', #177, #154 ) ;
#297 = AXIS2_PLACEMENT_3D ( 'NONE', #14, #392, #77 ) ;
#298 = ADVANCED_FACE ( 'PLANAR_1', ( #281, #3 ), #218, .F. ) ;
#299 = DIRECTION ( 'NONE',  ( 0.000000000000000000, 0.000000000000000000, 1.000000000000000000 ) ) ;
#300 = ADVANCED_FACE ( 'CYL_0', ( #122 ), #367, .F. ) ;
#301 = CARTESIAN_POINT ( 'NONE',  ( 5.220696218097560658E-14, -15.00000000000000000, 3.000000000000000000 ) ) ;
#302 = LINE ( 'NONE', #21, #387 ) ;
#303 = ORIENTED_EDGE ( 'NONE', *, *, #22, .F. ) ;
#304 = LINE ( 'NONE', #124, #152 ) ;
#305 = CARTESIAN_POINT ( 'NONE',  ( -1.652579016713931321E-16, 0.000000000000000000, 2.458499999999999908 ) ) ;
#306 = CARTESIAN_POINT ( 'NONE',  ( 4.792291457821508063E-14, -13.77299999999999969, -6.999999999999999112 ) ) ;
#307 = CIRCLE ( 'NONE', #272, 6.999999999999993783 ) ;
#308 = CIRCLE ( 'NONE', #83, 3.000000000000000000 ) ;
#309 = DIRECTION ( 'NONE',  ( 3.491481338843133355E-15, -1.000000000000000000, 0.000000000000000000 ) ) ;
#310 = EDGE_LOOP ( 'NONE', ( #220, #99, #374, #40 ) ) ;
#311 = EDGE_CURVE ( 'NONE', #319, #221, #215, .T. ) ;
#312 = ORIENTED_EDGE ( 'NONE', *, *, #74, .F. ) ;
#313 = AXIS2_PLACEMENT_3D ( 'NONE', #205, #170, #145 ) ;
#314 = ORIENTED_EDGE ( 'NONE', *, *, #117, .F. ) ;
#315 = AXIS2_PLACEMENT_3D ( 'NONE', #73, #270, #386 ) ;
#316 = DIRECTION ( 'NONE',  ( 3.491481338843133355E-15, -1.000000000000000000, 0.000000000000000000 ) ) ;
#317 = AXIS2_PLACEMENT_3D ( 'NONE', #371, #39, #94 ) ;
#318 = EDGE_CURVE ( 'NONE', #369, #91, #276, .T. ) ;
#319 = VERTEX_POINT ( 'NONE', #182 ) ;
#320 = ORIENTED_EDGE ( 'NONE', *, *, #384, .F. ) ;
#321 = VERTEX_POINT ( 'NONE', #362 ) ;
#322 = ORIENTED_EDGE ( 'NONE', *, *, #353, .F. ) ;
#323 = ORIENTED_EDGE ( 'NONE', *, *, #125, .T. ) ;
#324 =( LENGTH_UNIT ( ) NAMED_UNIT ( * ) SI_UNIT ( .MILLI., .METRE. ) );
#325 = CARTESIAN_POINT ( 'NONE',  ( 5.031632503599204327E-14, -14.45849999999999902, 0.000000000000000000 ) ) ;
#326 = ORIENTED_EDGE ( 'NONE', *, *, #171, .T. ) ;
#327 = FACE_BOUND ( 'NONE', #97, .T. ) ;
#328 = DIRECTION ( 'NONE',  ( 0.000000000000000000, 0.000000000000000000, 1.000000000000000000 ) ) ;
#329 = CONICAL_SURFACE ( 'NONE', #383, 5.772999999999992582, 0.7853981633974490562 ) ;
#330 = CARTESIAN_POINT ( 'NONE',  ( -1.652579016713931321E-16, 0.000000000000000000, 5.772999999999992582 ) ) ;
#331 = VECTOR ( 'NONE', #249, 1000.000000000000000 ) ;
#332 = DIRECTION ( 'NONE',  ( 3.491481338843133355E-15, -1.000000000000000000, 0.000000000000000000 ) ) ;
#333 = LINE ( 'NONE', #301, #142 ) ;
#334 = DIRECTION ( 'NONE',  ( 0.000000000000000000, 0.000000000000000000, 1.000000000000000000 ) ) ;
#335 = EDGE_CURVE ( 'NONE', #91, #256, #173, .T. ) ;
#336 = CARTESIAN_POINT ( 'NONE',  ( -1.652579016713912093E-16, 0.000000000000000000, -3.000000000000000000 ) ) ;
#337 = DIRECTION ( 'NONE',  ( 3.491481338843133355E-15, -1.000000000000000000, 0.000000000000000000 ) ) ;
#338 = DIRECTION ( 'NONE',  ( 0.000000000000000000, 0.000000000000000000, 1.000000000000000000 ) ) ;
#339 = EDGE_CURVE ( 'NONE', #224, #256, #184, .T. ) ;
#340 = CARTESIAN_POINT ( 'NONE',  ( -1.652579016713931321E-16, 0.000000000000000000, 0.000000000000000000 ) ) ;
#341 = ORIENTED_EDGE ( 'NONE', *, *, #153, .F. ) ;
#342 = EDGE_CURVE ( 'NONE', #221, #259, #56, .T. ) ;
#343 = EDGE_LOOP ( 'NONE', ( #320, #282, #38, #347 ) ) ;
#344 = PRESENTATION_LAYER_ASSIGNMENT (  '', '', ( #116 ) ) ;
#345 = ORIENTED_EDGE ( 'NONE', *, *, #274, .T. ) ;
#346 = ORIENTED_EDGE ( 'NONE', *, *, #183, .T. ) ;
#347 = ORIENTED_EDGE ( 'NONE', *, *, #245, .T. ) ;
#348 = APPLICATION_PROTOCOL_DEFINITION ( 'draft international standard', 'automotive_design', 1998, #263 ) ;
#349 = ORIENTED_EDGE ( 'NONE', *, *, #74, .T. ) ;
#350 = DIRECTION ( 'NONE',  ( -3.491481338843133355E-15, 1.000000000000000000, -0.000000000000000000 ) ) ;
#351 = PRODUCT ( '1.35.1140615', '1.35.1140615', '', ( #381 ) ) ;
#352 = ORIENTED_EDGE ( 'NONE', *, *, #318, .T. ) ;
#353 = EDGE_CURVE ( 'NONE', #256, #91, #307, .T. ) ;
#354 = DIRECTION ( 'NONE',  ( 0.000000000000000000, 0.000000000000000000, -1.000000000000000000 ) ) ;
#355 = DIRECTION ( 'NONE',  ( 3.491481338843133355E-15, -1.000000000000000000, 0.000000000000000000 ) ) ;
#356 = FACE_OUTER_BOUND ( 'NONE', #254, .T. ) ;
#357 = CARTESIAN_POINT ( 'NONE',  ( -1.652579016713931321E-16, 0.000000000000000000, 0.000000000000000000 ) ) ;
#358 =( GEOMETRIC_REPRESENTATION_CONTEXT ( 3 ) GLOBAL_UNCERTAINTY_ASSIGNED_CONTEXT ( ( #24 ) ) GLOBAL_UNIT_ASSIGNED_CONTEXT ( ( #324, #201, #136 ) ) REPRESENTATION_CONTEXT ( 'NONE', 'WORKASPACE' ) );
#359 = CARTESIAN_POINT ( 'NONE',  ( 5.220696218097560658E-14, -15.00000000000000000, 0.000000000000000000 ) ) ;
#360 = DIRECTION ( 'NONE',  ( 3.491481338843133355E-15, -1.000000000000000000, 0.000000000000000000 ) ) ;
#361 = AXIS2_PLACEMENT_3D ( 'NONE', #106, #104, #234 ) ;
#362 = CARTESIAN_POINT ( 'NONE',  ( 1.725379243312163445E-15, -0.5414999999999994262, 2.458499999999999908 ) ) ;
#363 = VECTOR ( 'NONE', #278, 1000.000000000000000 ) ;
#364 = LINE ( 'NONE', #26, #331 ) ;
#365 = CIRCLE ( 'NONE', #1, 5.772999999999999687 ) ;
#366 = COLOUR_RGB ( '',0.7921568627450980005, 0.8196078431372548767, 0.9333333333333333481 ) ;
#367 = CYLINDRICAL_SURFACE ( 'NONE', #257, 2.458499999999999908 ) ;
#368 = DIRECTION ( 'NONE',  ( 2.382254525458714314E-15, -0.7071067811865470176, -0.7071067811865481278 ) ) ;
#369 = VERTEX_POINT ( 'NONE', #2 ) ;
#370 = ADVANCED_FACE ( 'CONE_0', ( #31 ), #57, .F. ) ;
#371 = CARTESIAN_POINT ( 'NONE',  ( 5.220696218097560658E-14, -15.00000000000000000, 0.000000000000000000 ) ) ;
#372 = ORIENTED_EDGE ( 'NONE', *, *, #285, .T. ) ;
#373 = ORIENTED_EDGE ( 'NONE', *, *, #261, .F. ) ;
#374 = ORIENTED_EDGE ( 'NONE', *, *, #277, .T. ) ;
#375 = ORIENTED_EDGE ( 'NONE', *, *, #25, .F. ) ;
#376 = CIRCLE ( 'NONE', #27, 5.772999999999992582 ) ;
#377 = EDGE_LOOP ( 'NONE', ( #200, #341 ) ) ;
#378 = CONICAL_SURFACE ( 'NONE', #208, 2.458499999999999908, 0.7853981633974490562 ) ;
#379 = DIRECTION ( 'NONE',  ( 0.000000000000000000, 0.000000000000000000, 1.000000000000000000 ) ) ;
#380 = ORIENTED_EDGE ( 'NONE', *, *, #113, .T. ) ;
#381 = PRODUCT_CONTEXT ( 'NONE', #263, 'mechanical' ) ;
#382 = CYLINDRICAL_SURFACE ( 'NONE', #33, 6.999999999999996447 ) ;
#383 = AXIS2_PLACEMENT_3D ( 'NONE', #34, #355, #264 ) ;
#384 = EDGE_CURVE ( 'NONE', #126, #190, #302, .T. ) ;
#385 = DIRECTION ( 'NONE',  ( 0.000000000000000000, 0.000000000000000000, 1.000000000000000000 ) ) ;
#386 = DIRECTION ( 'NONE',  ( 0.000000000000000000, 0.000000000000000000, 1.000000000000000000 ) ) ;
#387 = VECTOR ( 'NONE', #105, 1000.000000000000000 ) ;
#388 = DIRECTION ( 'NONE',  ( -3.491481338843133355E-15, 1.000000000000000000, 0.000000000000000000 ) ) ;
#389 = CARTESIAN_POINT ( 'NONE',  ( 3.261536941685984589E-15, -1.226999999999999869, -6.999999999999993783 ) ) ;
#390 = CONICAL_SURFACE ( 'NONE', #101, 6.999999999999999112, 0.7853981633974485010 ) ;
#391 = CARTESIAN_POINT ( 'NONE',  ( -1.652579016713931321E-16, 0.000000000000000000, 0.000000000000000000 ) ) ;
#392 = DIRECTION ( 'NONE',  ( -3.491481338843133355E-15, 1.000000000000000000, 0.000000000000000000 ) ) ;
#393 = CONICAL_SURFACE ( 'NONE', #313, 6.999999999999999112, 0.7853981633974485010 ) ;
#394 = DIRECTION ( 'NONE',  ( 3.491481338843133355E-15, -1.000000000000000000, 0.000000000000000000 ) ) ;
#395 = LINE ( 'NONE', #305, #147 ) ;
#396 =( GEOMETRIC_REPRESENTATION_CONTEXT ( 3 ) GLOBAL_UNCERTAINTY_ASSIGNED_CONTEXT ( ( #189 ) ) GLOBAL_UNIT_ASSIGNED_CONTEXT ( ( #71, #13, #290 ) ) REPRESENTATION_CONTEXT ( 'NONE', 'WORKASPACE' ) );
#397 = DIRECTION ( 'NONE',  ( 0.000000000000000000, 0.000000000000000000, 1.000000000000000000 ) ) ;
#398 = CONICAL_SURFACE ( 'NONE', #96, 3.000000000000000000, 0.7853981633974482790 ) ;
#399 = DIRECTION ( 'NONE',  ( 3.491481338843133355E-15, -1.000000000000000000, 0.000000000000000000 ) ) ;
ENDSEC;
END-ISO-10303-21;
