ISO-10303-21;
HEADER;
FILE_DESCRIPTION (( 'STEP AP214' ),
    '1' );
FILE_NAME ('1.31.FM6.STEP',
    '2024-10-04T18:28:14',
    ( '' ),
    ( '' ),
    'SwSTEP 2.0',
    'SolidWorks 2024',
    '' );
FILE_SCHEMA (( 'AUTOMOTIVE_DESIGN' ));
ENDSEC;

DATA;
#1 = ORIENTED_EDGE ( 'NONE', *, *, #233, .T. ) ;
#2 = AXIS2_PLACEMENT_3D ( 'NONE', #226, #285, #339 ) ;
#3 = LINE ( 'NONE', #346, #357 ) ;
#4 = VERTEX_POINT ( 'NONE', #200 ) ;
#5 = AXIS2_PLACEMENT_3D ( 'NONE', #323, #45, #291 ) ;
#6 = DIRECTION ( 'NONE',  ( 8.659560562354931626E-17, 0.7071067811865475727, -0.7071067811865474617 ) ) ;
#7 = VERTEX_POINT ( 'NONE', #258 ) ;
#8 = ORIENTED_EDGE ( 'NONE', *, *, #341, .F. ) ;
#9 = VECTOR ( 'NONE', #121, 1000.000000000000000 ) ;
#10 = EDGE_LOOP ( 'NONE', ( #206, #28, #222, #119 ) ) ;
#11 = ADVANCED_FACE ( 'PLANAR_1', ( #87, #203 ), #287, .F. ) ;
#12 = VERTEX_POINT ( 'NONE', #173 ) ;
#13 = LINE ( 'NONE', #153, #62 ) ;
#14 = FACE_OUTER_BOUND ( 'NONE', #24, .T. ) ;
#15 = ADVANCED_FACE ( 'CONE_0', ( #85 ), #255, .F. ) ;
#16 = CARTESIAN_POINT ( 'NONE',  ( 3.010794155703767171E-16, -3.000000000000000000, -2.458499999999999908 ) ) ;
#17 = FACE_OUTER_BOUND ( 'NONE', #120, .T. ) ;
#18 = CARTESIAN_POINT ( 'NONE',  ( 7.000000000000000000, -3.000000000000000000, 6.000000000000000000 ) ) ;
#19 = CARTESIAN_POINT ( 'NONE',  ( -7.000000000000000000, 0.000000000000000000, -6.000000000000000000 ) ) ;
#20 = DIRECTION ( 'NONE',  ( 0.000000000000000000, 1.000000000000000000, 0.000000000000000000 ) ) ;
#21 = VERTEX_POINT ( 'NONE', #227 ) ;
#22 = COLOUR_RGB ( '',0.7921568627450980005, 0.8196078431372548767, 0.9333333333333333481 ) ;
#23 = DIRECTION ( 'NONE',  ( 1.000000000000000000, 0.000000000000000000, 0.000000000000000000 ) ) ;
#24 = EDGE_LOOP ( 'NONE', ( #37, #216, #170, #91 ) ) ;
#25 = AXIS2_PLACEMENT_3D ( 'NONE', #215, #166, #162 ) ;
#26 = EDGE_CURVE ( 'NONE', #219, #141, #201, .T. ) ;
#27 = FACE_OUTER_BOUND ( 'NONE', #171, .T. ) ;
#28 = ORIENTED_EDGE ( 'NONE', *, *, #355, .T. ) ;
#29 = CARTESIAN_POINT ( 'NONE',  ( 3.342367276572913520E-16, -0.5415000000000003144, -2.458499999999999908 ) ) ;
#30 = EDGE_LOOP ( 'NONE', ( #146, #338, #140, #161 ) ) ;
#31 = LINE ( 'NONE', #114, #134 ) ;
#32 = AXIS2_PLACEMENT_3D ( 'NONE', #118, #236, #315 ) ;
#33 = PLANE ( 'NONE',  #237 ) ;
#34 = PRODUCT_DEFINITION_CONTEXT ( 'detailed design', #208, 'design' ) ;
#35 = DIRECTION ( 'NONE',  ( 1.000000000000000000, 0.000000000000000000, 0.000000000000000000 ) ) ;
#36 = CARTESIAN_POINT ( 'NONE',  ( 7.000000000000000000, 0.000000000000000000, 6.000000000000000000 ) ) ;
#37 = ORIENTED_EDGE ( 'NONE', *, *, #210, .T. ) ;
#38 = PRODUCT_DEFINITION ( 'UNKNOWN', '', #349, #34 ) ;
#39 = DIRECTION ( 'NONE',  ( 0.000000000000000000, 0.000000000000000000, 1.000000000000000000 ) ) ;
#40 = ORIENTED_EDGE ( 'NONE', *, *, #100, .T. ) ;
#41 = EDGE_CURVE ( 'NONE', #4, #54, #286, .T. ) ;
#42 = LINE ( 'NONE', #98, #297 ) ;
#43 = AXIS2_PLACEMENT_3D ( 'NONE', #269, #223, #334 ) ;
#44 = CARTESIAN_POINT ( 'NONE',  ( 7.000000000000000000, -3.000000000000000000, 6.000000000000000000 ) ) ;
#45 = DIRECTION ( 'NONE',  ( -0.000000000000000000, -1.000000000000000000, -0.000000000000000000 ) ) ;
#46 = CARTESIAN_POINT ( 'NONE',  ( 0.000000000000000000, -2.458499999999999908, 0.000000000000000000 ) ) ;
#47 = ADVANCED_FACE ( 'PLANAR_5', ( #90 ), #33, .F. ) ;
#48 = PRESENTATION_STYLE_ASSIGNMENT (( #353 ) ) ;
#49 = CARTESIAN_POINT ( 'NONE',  ( 0.000000000000000000, -3.000000000000000000, 0.000000000000000000 ) ) ;
#50 = MANIFOLD_SOLID_BREP ( 'Body-Move/Copy1', #59 ) ;
#51 = CARTESIAN_POINT ( 'NONE',  ( 3.673940397442059375E-16, 0.000000000000000000, -3.000000000000000000 ) ) ;
#52 = ORIENTED_EDGE ( 'NONE', *, *, #169, .T. ) ;
#53 = DIRECTION ( 'NONE',  ( 0.000000000000000000, 0.000000000000000000, -1.000000000000000000 ) ) ;
#54 = VERTEX_POINT ( 'NONE', #44 ) ;
#55 = DIRECTION ( 'NONE',  ( 0.000000000000000000, 0.000000000000000000, 1.000000000000000000 ) ) ;
#56 = ORIENTED_EDGE ( 'NONE', *, *, #220, .F. ) ;
#57 = VERTEX_POINT ( 'NONE', #295 ) ;
#58 = SHAPE_DEFINITION_REPRESENTATION ( #314, #229 ) ;
#59 = CLOSED_SHELL ( 'NONE', ( #359, #198, #15, #228, #11, #186, #97, #279, #47, #126, #321, #111 ) ) ;
#60 = ORIENTED_EDGE ( 'NONE', *, *, #64, .T. ) ;
#61 =( NAMED_UNIT ( * ) SI_UNIT ( $, .STERADIAN. ) SOLID_ANGLE_UNIT ( ) );
#62 = VECTOR ( 'NONE', #266, 999.9999999999998863 ) ;
#63 = CARTESIAN_POINT ( 'NONE',  ( 0.000000000000000000, -0.5415000000000003144, 0.000000000000000000 ) ) ;
#64 = EDGE_CURVE ( 'NONE', #193, #57, #65, .T. ) ;
#65 = LINE ( 'NONE', #350, #168 ) ;
#66 = EDGE_LOOP ( 'NONE', ( #105, #138, #56, #303 ) ) ;
#67 = ORIENTED_EDGE ( 'NONE', *, *, #143, .F. ) ;
#68 = LINE ( 'NONE', #16, #128 ) ;
#69 = DIRECTION ( 'NONE',  ( 0.000000000000000000, 0.000000000000000000, -1.000000000000000000 ) ) ;
#70 = LINE ( 'NONE', #183, #319 ) ;
#71 = CARTESIAN_POINT ( 'NONE',  ( 7.000000000000000000, -3.000000000000000000, -6.000000000000000000 ) ) ;
#72 = EDGE_CURVE ( 'NONE', #235, #141, #123, .T. ) ;
#73 = CARTESIAN_POINT ( 'NONE',  ( 0.000000000000000000, -0.5415000000000003144, 0.000000000000000000 ) ) ;
#74 = CARTESIAN_POINT ( 'NONE',  ( 0.000000000000000000, -3.000000000000000000, -3.000000000000000000 ) ) ;
#75 = EDGE_CURVE ( 'NONE', #57, #7, #155, .T. ) ;
#76 = FACE_OUTER_BOUND ( 'NONE', #136, .T. ) ;
#77 = VERTEX_POINT ( 'NONE', #296 ) ;
#78 = LINE ( 'NONE', #230, #294 ) ;
#79 = DIRECTION ( 'NONE',  ( -0.000000000000000000, -1.000000000000000000, -0.000000000000000000 ) ) ;
#80 = VERTEX_POINT ( 'NONE', #209 ) ;
#81 = AXIS2_PLACEMENT_3D ( 'NONE', #354, #358, #55 ) ;
#82 = DIRECTION ( 'NONE',  ( 0.000000000000000000, 0.000000000000000000, 1.000000000000000000 ) ) ;
#83 = ORIENTED_EDGE ( 'NONE', *, *, #176, .F. ) ;
#84 = CONICAL_SURFACE ( 'NONE', #179, 2.458499999999999908, 0.7853981633974482790 ) ;
#85 = FACE_OUTER_BOUND ( 'NONE', #10, .T. ) ;
#86 = CARTESIAN_POINT ( 'NONE',  ( 0.000000000000000000, 0.000000000000000000, 0.000000000000000000 ) ) ;
#87 = FACE_OUTER_BOUND ( 'NONE', #259, .T. ) ;
#88 = AXIS2_PLACEMENT_3D ( 'NONE', #135, #218, #188 ) ;
#89 = FACE_OUTER_BOUND ( 'NONE', #66, .T. ) ;
#90 = FACE_OUTER_BOUND ( 'NONE', #231, .T. ) ;
#91 = ORIENTED_EDGE ( 'NONE', *, *, #192, .T. ) ;
#92 = DIRECTION ( 'NONE',  ( 0.000000000000000000, 1.000000000000000000, 0.000000000000000000 ) ) ;
#93 =( NAMED_UNIT ( * ) PLANE_ANGLE_UNIT ( ) SI_UNIT ( $, .RADIAN. ) );
#94 = DIRECTION ( 'NONE',  ( 0.000000000000000000, 0.000000000000000000, 1.000000000000000000 ) ) ;
#95 = CARTESIAN_POINT ( 'NONE',  ( 7.000000000000000000, -3.000000000000000000, -6.000000000000000000 ) ) ;
#96 = VECTOR ( 'NONE', #139, 1000.000000000000000 ) ;
#97 = ADVANCED_FACE ( 'PLANAR_3', ( #14 ), #214, .F. ) ;
#98 = CARTESIAN_POINT ( 'NONE',  ( 0.000000000000000000, -3.000000000000000000, 2.458499999999999908 ) ) ;
#99 = PLANE ( 'NONE',  #25 ) ;
#100 = EDGE_CURVE ( 'NONE', #284, #235, #42, .T. ) ;
#101 = AXIS2_PLACEMENT_3D ( 'NONE', #63, #92, #115 ) ;
#102 = AXIS2_PLACEMENT_3D ( 'NONE', #103, #309, #82 ) ;
#103 = CARTESIAN_POINT ( 'NONE',  ( 0.000000000000000000, -0.5415000000000003144, 0.000000000000000000 ) ) ;
#104 = CARTESIAN_POINT ( 'NONE',  ( -7.000000000000000000, -3.000000000000000000, 6.000000000000000000 ) ) ;
#105 = ORIENTED_EDGE ( 'NONE', *, *, #313, .T. ) ;
#106 = CONICAL_SURFACE ( 'NONE', #5, 3.000000000000000000, 0.7853981633974485010 ) ;
#107 = CARTESIAN_POINT ( 'NONE',  ( 0.000000000000000000, -3.000000000000000000, 0.000000000000000000 ) ) ;
#108 = ORIENTED_EDGE ( 'NONE', *, *, #176, .T. ) ;
#109 = MECHANICAL_DESIGN_GEOMETRIC_PRESENTATION_REPRESENTATION (  '', ( #292 ), #133 ) ;
#110 = CARTESIAN_POINT ( 'NONE',  ( -7.000000000000000000, 0.000000000000000000, 6.000000000000000000 ) ) ;
#111 = ADVANCED_FACE ( 'CONE_1', ( #211 ), #106, .F. ) ;
#112 = ORIENTED_EDGE ( 'NONE', *, *, #169, .F. ) ;
#113 = AXIS2_PLACEMENT_3D ( 'NONE', #360, #277, #53 ) ;
#114 = CARTESIAN_POINT ( 'NONE',  ( 3.010794155703767171E-16, -0.5415000000000003144, -2.458499999999999908 ) ) ;
#115 = DIRECTION ( 'NONE',  ( 0.000000000000000000, 0.000000000000000000, 1.000000000000000000 ) ) ;
#116 = CARTESIAN_POINT ( 'NONE',  ( 7.000000000000000000, 0.000000000000000000, -6.000000000000000000 ) ) ;
#117 = EDGE_CURVE ( 'NONE', #54, #132, #298, .T. ) ;
#118 = CARTESIAN_POINT ( 'NONE',  ( -7.000000000000000000, -3.000000000000000000, 6.000000000000000000 ) ) ;
#119 = ORIENTED_EDGE ( 'NONE', *, *, #72, .F. ) ;
#120 = EDGE_LOOP ( 'NONE', ( #348, #290, #167, #278 ) ) ;
#121 = DIRECTION ( 'NONE',  ( 0.000000000000000000, 0.7071067811865475727, 0.7071067811865474617 ) ) ;
#122 = CIRCLE ( 'NONE', #325, 3.000000000000000000 ) ;
#123 = LINE ( 'NONE', #129, #9 ) ;
#124 = CARTESIAN_POINT ( 'NONE',  ( -7.000000000000000000, 0.000000000000000000, 6.000000000000000000 ) ) ;
#125 = VECTOR ( 'NONE', #322, 1000.000000000000000 ) ;
#126 = ADVANCED_FACE ( 'CONE_0', ( #17 ), #84, .F. ) ;
#127 = SURFACE_STYLE_FILL_AREA ( #327 ) ;
#128 = VECTOR ( 'NONE', #243, 1000.000000000000000 ) ;
#129 = CARTESIAN_POINT ( 'NONE',  ( 0.000000000000000000, -0.5415000000000003144, 2.458499999999999908 ) ) ;
#130 = PLANE ( 'NONE',  #113 ) ;
#131 = LINE ( 'NONE', #19, #330 ) ;
#132 = VERTEX_POINT ( 'NONE', #95 ) ;
#133 =( GEOMETRIC_REPRESENTATION_CONTEXT ( 3 ) GLOBAL_UNCERTAINTY_ASSIGNED_CONTEXT ( ( #157 ) ) GLOBAL_UNIT_ASSIGNED_CONTEXT ( ( #238, #93, #293 ) ) REPRESENTATION_CONTEXT ( 'NONE', 'WORKASPACE' ) );
#134 = VECTOR ( 'NONE', #6, 1000.000000000000000 ) ;
#135 = CARTESIAN_POINT ( 'NONE',  ( 0.000000000000000000, -2.458499999999999908, 0.000000000000000000 ) ) ;
#136 = EDGE_LOOP ( 'NONE', ( #253, #8, #320, #276 ) ) ;
#137 = FACE_OUTER_BOUND ( 'NONE', #30, .T. ) ;
#138 = ORIENTED_EDGE ( 'NONE', *, *, #143, .T. ) ;
#139 = DIRECTION ( 'NONE',  ( -0.000000000000000000, -1.000000000000000000, -0.000000000000000000 ) ) ;
#140 = ORIENTED_EDGE ( 'NONE', *, *, #75, .F. ) ;
#141 = VERTEX_POINT ( 'NONE', #241 ) ;
#142 = AXIS2_PLACEMENT_3D ( 'NONE', #107, #196, #254 ) ;
#143 = EDGE_CURVE ( 'NONE', #284, #164, #13, .T. ) ;
#144 = ORIENTED_EDGE ( 'NONE', *, *, #248, .F. ) ;
#145 = APPLICATION_PROTOCOL_DEFINITION ( 'draft international standard', 'automotive_design', 1998, #307 ) ;
#146 = ORIENTED_EDGE ( 'NONE', *, *, #335, .T. ) ;
#147 = EDGE_LOOP ( 'NONE', ( #67, #108, #345, #311 ) ) ;
#148 = AXIS2_PLACEMENT_3D ( 'NONE', #86, #262, #35 ) ;
#149 = FILL_AREA_STYLE_COLOUR ( '', #22 ) ;
#150 = ORIENTED_EDGE ( 'NONE', *, *, #313, .F. ) ;
#151 = CARTESIAN_POINT ( 'NONE',  ( -7.000000000000000000, 0.000000000000000000, -6.000000000000000000 ) ) ;
#152 = CIRCLE ( 'NONE', #102, 2.458499999999999908 ) ;
#153 = CARTESIAN_POINT ( 'NONE',  ( 3.673940397442059868E-16, -3.000000000000000000, 3.000000000000000000 ) ) ;
#154 = EDGE_CURVE ( 'NONE', #21, #177, #68, .T. ) ;
#155 = LINE ( 'NONE', #151, #318 ) ;
#156 = AXIS2_PLACEMENT_3D ( 'NONE', #124, #69, #268 ) ;
#157 = UNCERTAINTY_MEASURE_WITH_UNIT (LENGTH_MEASURE( 1.000000000000000082E-05 ), #238, 'distance_accuracy_value', 'NONE');
#158 = AXIS2_PLACEMENT_3D ( 'NONE', #304, #250, #306 ) ;
#159 = DIRECTION ( 'NONE',  ( 0.000000000000000000, 0.000000000000000000, 1.000000000000000000 ) ) ;
#160 = CARTESIAN_POINT ( 'NONE',  ( 0.000000000000000000, -3.000000000000000000, 0.000000000000000000 ) ) ;
#161 = ORIENTED_EDGE ( 'NONE', *, *, #245, .T. ) ;
#162 = DIRECTION ( 'NONE',  ( 0.000000000000000000, 0.000000000000000000, 1.000000000000000000 ) ) ;
#163 = FACE_OUTER_BOUND ( 'NONE', #347, .T. ) ;
#164 = VERTEX_POINT ( 'NONE', #242 ) ;
#165 = EDGE_CURVE ( 'NONE', #7, #4, #70, .T. ) ;
#166 = DIRECTION ( 'NONE',  ( -1.000000000000000000, 0.000000000000000000, 0.000000000000000000 ) ) ;
#167 = ORIENTED_EDGE ( 'NONE', *, *, #72, .T. ) ;
#168 = VECTOR ( 'NONE', #178, 1000.000000000000000 ) ;
#169 = EDGE_CURVE ( 'NONE', #132, #80, #326, .T. ) ;
#170 = ORIENTED_EDGE ( 'NONE', *, *, #165, .F. ) ;
#171 = EDGE_LOOP ( 'NONE', ( #197, #272, #251, #60 ) ) ;
#172 = DIRECTION ( 'NONE',  ( 0.000000000000000000, 0.000000000000000000, -1.000000000000000000 ) ) ;
#173 = CARTESIAN_POINT ( 'NONE',  ( -7.000000000000000000, -3.000000000000000000, 6.000000000000000000 ) ) ;
#174 = DIRECTION ( 'NONE',  ( 0.000000000000000000, 0.000000000000000000, 1.000000000000000000 ) ) ;
#175 = ORIENTED_EDGE ( 'NONE', *, *, #240, .T. ) ;
#176 = EDGE_CURVE ( 'NONE', #284, #21, #282, .T. ) ;
#177 = VERTEX_POINT ( 'NONE', #29 ) ;
#178 = DIRECTION ( 'NONE',  ( -1.000000000000000000, 0.000000000000000000, 0.000000000000000000 ) ) ;
#179 = AXIS2_PLACEMENT_3D ( 'NONE', #73, #180, #185 ) ;
#180 = DIRECTION ( 'NONE',  ( 0.000000000000000000, 1.000000000000000000, 0.000000000000000000 ) ) ;
#181 = VECTOR ( 'NONE', #263, 1000.000000000000000 ) ;
#182 = CIRCLE ( 'NONE', #158, 3.000000000000000000 ) ;
#183 = CARTESIAN_POINT ( 'NONE',  ( -7.000000000000000000, 0.000000000000000000, 6.000000000000000000 ) ) ;
#184 = DIRECTION ( 'NONE',  ( -1.000000000000000000, 0.000000000000000000, 0.000000000000000000 ) ) ;
#185 = DIRECTION ( 'NONE',  ( 0.000000000000000000, 0.000000000000000000, 1.000000000000000000 ) ) ;
#186 = ADVANCED_FACE ( 'PLANAR_2', ( #137 ), #130, .F. ) ;
#187 = CIRCLE ( 'NONE', #81, 2.458499999999999908 ) ;
#188 = DIRECTION ( 'NONE',  ( 0.000000000000000000, 0.000000000000000000, 1.000000000000000000 ) ) ;
#189 = ORIENTED_EDGE ( 'NONE', *, *, #117, .F. ) ;
#190 = DIRECTION ( 'NONE',  ( 0.000000000000000000, 1.000000000000000000, 0.000000000000000000 ) ) ;
#191 = DIRECTION ( 'NONE',  ( 0.000000000000000000, 0.000000000000000000, 1.000000000000000000 ) ) ;
#192 = EDGE_CURVE ( 'NONE', #7, #12, #194, .T. ) ;
#193 = VERTEX_POINT ( 'NONE', #246 ) ;
#194 = LINE ( 'NONE', #110, #96 ) ;
#195 = ORIENTED_EDGE ( 'NONE', *, *, #154, .F. ) ;
#196 = DIRECTION ( 'NONE',  ( 0.000000000000000000, 1.000000000000000000, 0.000000000000000000 ) ) ;
#197 = ORIENTED_EDGE ( 'NONE', *, *, #75, .T. ) ;
#198 = ADVANCED_FACE ( 'CYL_0', ( #163 ), #361, .F. ) ;
#199 = APPLICATION_PROTOCOL_DEFINITION ( 'draft international standard', 'automotive_design', 1998, #208 ) ;
#200 = CARTESIAN_POINT ( 'NONE',  ( 7.000000000000000000, 0.000000000000000000, 6.000000000000000000 ) ) ;
#201 = CIRCLE ( 'NONE', #212, 3.000000000000000000 ) ;
#202 = CIRCLE ( 'NONE', #88, 2.458499999999999908 ) ;
#203 = FACE_BOUND ( 'NONE', #336, .T. ) ;
#204 = DIRECTION ( 'NONE',  ( 0.000000000000000000, -0.000000000000000000, 1.000000000000000000 ) ) ;
#205 = PRODUCT ( '1.31.FM6', '1.31.FM6', '', ( #344 ) ) ;
#206 = ORIENTED_EDGE ( 'NONE', *, *, #260, .F. ) ;
#207 = ORIENTED_EDGE ( 'NONE', *, *, #335, .F. ) ;
#208 = APPLICATION_CONTEXT ( 'automotive_design' ) ;
#209 = CARTESIAN_POINT ( 'NONE',  ( -7.000000000000000000, -3.000000000000000000, -6.000000000000000000 ) ) ;
#210 = EDGE_CURVE ( 'NONE', #12, #54, #302, .T. ) ;
#211 = FACE_OUTER_BOUND ( 'NONE', #147, .T. ) ;
#212 = AXIS2_PLACEMENT_3D ( 'NONE', #289, #232, #39 ) ;
#213 = DIRECTION ( 'NONE',  ( 1.000000000000000000, 0.000000000000000000, 0.000000000000000000 ) ) ;
#214 = PLANE ( 'NONE',  #156 ) ;
#215 = CARTESIAN_POINT ( 'NONE',  ( 7.000000000000000000, 0.000000000000000000, 6.000000000000000000 ) ) ;
#216 = ORIENTED_EDGE ( 'NONE', *, *, #41, .F. ) ;
#217 = CIRCLE ( 'NONE', #142, 3.000000000000000000 ) ;
#218 = DIRECTION ( 'NONE',  ( 0.000000000000000000, 1.000000000000000000, 0.000000000000000000 ) ) ;
#219 = VERTEX_POINT ( 'NONE', #51 ) ;
#220 = EDGE_CURVE ( 'NONE', #77, #164, #217, .T. ) ;
#221 = DIRECTION ( 'NONE',  ( 0.000000000000000000, 1.000000000000000000, 0.000000000000000000 ) ) ;
#222 = ORIENTED_EDGE ( 'NONE', *, *, #26, .T. ) ;
#223 = DIRECTION ( 'NONE',  ( 0.000000000000000000, 1.000000000000000000, 0.000000000000000000 ) ) ;
#224 = ORIENTED_EDGE ( 'NONE', *, *, #64, .F. ) ;
#225 = DIRECTION ( 'NONE',  ( 0.000000000000000000, 1.000000000000000000, 0.000000000000000000 ) ) ;
#226 = CARTESIAN_POINT ( 'NONE',  ( 0.000000000000000000, -3.000000000000000000, 0.000000000000000000 ) ) ;
#227 = CARTESIAN_POINT ( 'NONE',  ( 3.010794155703767171E-16, -2.458499999999999908, -2.458499999999999908 ) ) ;
#228 = ADVANCED_FACE ( 'PLANAR_0', ( #27, #252 ), #275, .T. ) ;
#229 = ADVANCED_BREP_SHAPE_REPRESENTATION ( '1.31.FM6', ( #50, #148 ), #239 ) ;
#230 = CARTESIAN_POINT ( 'NONE',  ( -7.000000000000000000, -3.000000000000000000, -6.000000000000000000 ) ) ;
#231 = EDGE_LOOP ( 'NONE', ( #52, #317, #224, #305 ) ) ;
#232 = DIRECTION ( 'NONE',  ( 0.000000000000000000, 1.000000000000000000, 0.000000000000000000 ) ) ;
#233 = EDGE_CURVE ( 'NONE', #164, #77, #122, .T. ) ;
#234 =( NAMED_UNIT ( * ) PLANE_ANGLE_UNIT ( ) SI_UNIT ( $, .RADIAN. ) );
#235 = VERTEX_POINT ( 'NONE', #331 ) ;
#236 = DIRECTION ( 'NONE',  ( 0.000000000000000000, 1.000000000000000000, 0.000000000000000000 ) ) ;
#237 = AXIS2_PLACEMENT_3D ( 'NONE', #116, #204, #316 ) ;
#238 =( LENGTH_UNIT ( ) NAMED_UNIT ( * ) SI_UNIT ( .MILLI., .METRE. ) );
#239 =( GEOMETRIC_REPRESENTATION_CONTEXT ( 3 ) GLOBAL_UNCERTAINTY_ASSIGNED_CONTEXT ( ( #270 ) ) GLOBAL_UNIT_ASSIGNED_CONTEXT ( ( #256, #234, #61 ) ) REPRESENTATION_CONTEXT ( 'NONE', 'WORKASPACE' ) );
#240 = EDGE_CURVE ( 'NONE', #235, #177, #152, .T. ) ;
#241 = CARTESIAN_POINT ( 'NONE',  ( 0.000000000000000000, 0.000000000000000000, 3.000000000000000000 ) ) ;
#242 = CARTESIAN_POINT ( 'NONE',  ( 3.673940397442059868E-16, -3.000000000000000000, 3.000000000000000000 ) ) ;
#243 = DIRECTION ( 'NONE',  ( 0.000000000000000000, 1.000000000000000000, 0.000000000000000000 ) ) ;
#244 = AXIS2_PLACEMENT_3D ( 'NONE', #46, #221, #337 ) ;
#245 = EDGE_CURVE ( 'NONE', #57, #80, #131, .T. ) ;
#246 = CARTESIAN_POINT ( 'NONE',  ( 7.000000000000000000, 0.000000000000000000, -6.000000000000000000 ) ) ;
#247 = DIRECTION ( 'NONE',  ( 0.000000000000000000, 0.000000000000000000, 1.000000000000000000 ) ) ;
#248 = EDGE_CURVE ( 'NONE', #141, #219, #182, .T. ) ;
#249 = VECTOR ( 'NONE', #273, 999.9999999999998863 ) ;
#250 = DIRECTION ( 'NONE',  ( 0.000000000000000000, 1.000000000000000000, 0.000000000000000000 ) ) ;
#251 = ORIENTED_EDGE ( 'NONE', *, *, #351, .T. ) ;
#252 = FACE_BOUND ( 'NONE', #333, .T. ) ;
#253 = ORIENTED_EDGE ( 'NONE', *, *, #117, .T. ) ;
#254 = DIRECTION ( 'NONE',  ( 0.000000000000000000, 0.000000000000000000, 1.000000000000000000 ) ) ;
#255 = CONICAL_SURFACE ( 'NONE', #101, 2.458499999999999908, 0.7853981633974482790 ) ;
#256 =( LENGTH_UNIT ( ) NAMED_UNIT ( * ) SI_UNIT ( .MILLI., .METRE. ) );
#257 = ORIENTED_EDGE ( 'NONE', *, *, #210, .F. ) ;
#258 = CARTESIAN_POINT ( 'NONE',  ( -7.000000000000000000, 0.000000000000000000, 6.000000000000000000 ) ) ;
#259 = EDGE_LOOP ( 'NONE', ( #207, #112, #189, #257 ) ) ;
#260 = EDGE_CURVE ( 'NONE', #177, #235, #187, .T. ) ;
#261 = ORIENTED_EDGE ( 'NONE', *, *, #100, .F. ) ;
#262 = DIRECTION ( 'NONE',  ( 0.000000000000000000, 0.000000000000000000, 1.000000000000000000 ) ) ;
#263 = DIRECTION ( 'NONE',  ( -0.000000000000000000, -1.000000000000000000, -0.000000000000000000 ) ) ;
#264 = SURFACE_SIDE_STYLE ('',( #127 ) ) ;
#265 = AXIS2_PLACEMENT_3D ( 'NONE', #160, #190, #191 ) ;
#266 = DIRECTION ( 'NONE',  ( 8.659560562354936556E-17, -0.7071067811865473507, 0.7071067811865477948 ) ) ;
#267 = PRODUCT_RELATED_PRODUCT_CATEGORY ( 'part', '', ( #205 ) ) ;
#268 = DIRECTION ( 'NONE',  ( -1.000000000000000000, 0.000000000000000000, -0.000000000000000000 ) ) ;
#269 = CARTESIAN_POINT ( 'NONE',  ( -7.000000000000000000, 0.000000000000000000, 6.000000000000000000 ) ) ;
#270 = UNCERTAINTY_MEASURE_WITH_UNIT (LENGTH_MEASURE( 1.000000000000000082E-05 ), #256, 'distance_accuracy_value', 'NONE');
#271 = CARTESIAN_POINT ( 'NONE',  ( 0.000000000000000000, -2.458499999999999908, 2.458499999999999908 ) ) ;
#272 = ORIENTED_EDGE ( 'NONE', *, *, #165, .T. ) ;
#273 = DIRECTION ( 'NONE',  ( 0.000000000000000000, -0.7071067811865473507, -0.7071067811865477948 ) ) ;
#274 = AXIS2_PLACEMENT_3D ( 'NONE', #49, #20, #247 ) ;
#275 = PLANE ( 'NONE',  #43 ) ;
#276 = ORIENTED_EDGE ( 'NONE', *, *, #41, .T. ) ;
#277 = DIRECTION ( 'NONE',  ( 1.000000000000000000, 0.000000000000000000, 0.000000000000000000 ) ) ;
#278 = ORIENTED_EDGE ( 'NONE', *, *, #248, .T. ) ;
#279 = ADVANCED_FACE ( 'PLANAR_4', ( #76 ), #99, .F. ) ;
#280 = DIRECTION ( 'NONE',  ( -0.000000000000000000, -1.000000000000000000, -0.000000000000000000 ) ) ;
#281 = PRESENTATION_LAYER_ASSIGNMENT (  '', '', ( #292 ) ) ;
#282 = CIRCLE ( 'NONE', #244, 2.458499999999999908 ) ;
#283 = LINE ( 'NONE', #288, #312 ) ;
#284 = VERTEX_POINT ( 'NONE', #271 ) ;
#285 = DIRECTION ( 'NONE',  ( -0.000000000000000000, -1.000000000000000000, -0.000000000000000000 ) ) ;
#286 = LINE ( 'NONE', #36, #181 ) ;
#287 = PLANE ( 'NONE',  #32 ) ;
#288 = CARTESIAN_POINT ( 'NONE',  ( 7.000000000000000000, 0.000000000000000000, -6.000000000000000000 ) ) ;
#289 = CARTESIAN_POINT ( 'NONE',  ( 0.000000000000000000, 0.000000000000000000, 0.000000000000000000 ) ) ;
#290 = ORIENTED_EDGE ( 'NONE', *, *, #240, .F. ) ;
#291 = DIRECTION ( 'NONE',  ( 0.000000000000000000, 0.000000000000000000, -1.000000000000000000 ) ) ;
#292 = STYLED_ITEM ( 'NONE', ( #48 ), #50 ) ;
#293 =( NAMED_UNIT ( * ) SI_UNIT ( $, .STERADIAN. ) SOLID_ANGLE_UNIT ( ) );
#294 = VECTOR ( 'NONE', #174, 1000.000000000000000 ) ;
#295 = CARTESIAN_POINT ( 'NONE',  ( -7.000000000000000000, 0.000000000000000000, -6.000000000000000000 ) ) ;
#296 = CARTESIAN_POINT ( 'NONE',  ( 0.000000000000000000, -3.000000000000000000, -3.000000000000000000 ) ) ;
#297 = VECTOR ( 'NONE', #324, 1000.000000000000000 ) ;
#298 = LINE ( 'NONE', #18, #125 ) ;
#299 = VECTOR ( 'NONE', #184, 1000.000000000000000 ) ;
#300 = FACE_OUTER_BOUND ( 'NONE', #329, .T. ) ;
#301 = ORIENTED_EDGE ( 'NONE', *, *, #260, .T. ) ;
#302 = LINE ( 'NONE', #104, #343 ) ;
#303 = ORIENTED_EDGE ( 'NONE', *, *, #308, .F. ) ;
#304 = CARTESIAN_POINT ( 'NONE',  ( 0.000000000000000000, 0.000000000000000000, 0.000000000000000000 ) ) ;
#305 = ORIENTED_EDGE ( 'NONE', *, *, #341, .T. ) ;
#306 = DIRECTION ( 'NONE',  ( 0.000000000000000000, 0.000000000000000000, 1.000000000000000000 ) ) ;
#307 = APPLICATION_CONTEXT ( 'automotive_design' ) ;
#308 = EDGE_CURVE ( 'NONE', #21, #77, #328, .T. ) ;
#309 = DIRECTION ( 'NONE',  ( 0.000000000000000000, 1.000000000000000000, 0.000000000000000000 ) ) ;
#310 = ORIENTED_EDGE ( 'NONE', *, *, #220, .T. ) ;
#311 = ORIENTED_EDGE ( 'NONE', *, *, #233, .F. ) ;
#312 = VECTOR ( 'NONE', #280, 1000.000000000000000 ) ;
#313 = EDGE_CURVE ( 'NONE', #21, #284, #202, .T. ) ;
#314 = PRODUCT_DEFINITION_SHAPE ( 'NONE', 'NONE',  #38 ) ;
#315 = DIRECTION ( 'NONE',  ( 0.000000000000000000, -0.000000000000000000, 1.000000000000000000 ) ) ;
#316 = DIRECTION ( 'NONE',  ( 1.000000000000000000, 0.000000000000000000, -0.000000000000000000 ) ) ;
#317 = ORIENTED_EDGE ( 'NONE', *, *, #245, .F. ) ;
#318 = VECTOR ( 'NONE', #94, 1000.000000000000000 ) ;
#319 = VECTOR ( 'NONE', #213, 1000.000000000000000 ) ;
#320 = ORIENTED_EDGE ( 'NONE', *, *, #351, .F. ) ;
#321 = ADVANCED_FACE ( 'CYL_0', ( #300 ), #332, .F. ) ;
#322 = DIRECTION ( 'NONE',  ( 0.000000000000000000, 0.000000000000000000, -1.000000000000000000 ) ) ;
#323 = CARTESIAN_POINT ( 'NONE',  ( 0.000000000000000000, -3.000000000000000000, 0.000000000000000000 ) ) ;
#324 = DIRECTION ( 'NONE',  ( 0.000000000000000000, 1.000000000000000000, 0.000000000000000000 ) ) ;
#325 = AXIS2_PLACEMENT_3D ( 'NONE', #356, #225, #159 ) ;
#326 = LINE ( 'NONE', #71, #299 ) ;
#327 = FILL_AREA_STYLE ('',( #149 ) ) ;
#328 = LINE ( 'NONE', #74, #249 ) ;
#329 = EDGE_LOOP ( 'NONE', ( #195, #83, #40, #175 ) ) ;
#330 = VECTOR ( 'NONE', #79, 1000.000000000000000 ) ;
#331 = CARTESIAN_POINT ( 'NONE',  ( 0.000000000000000000, -0.5415000000000003144, 2.458499999999999908 ) ) ;
#332 = CYLINDRICAL_SURFACE ( 'NONE', #274, 2.458499999999999908 ) ;
#333 = EDGE_LOOP ( 'NONE', ( #144, #340 ) ) ;
#334 = DIRECTION ( 'NONE',  ( 0.000000000000000000, -0.000000000000000000, 1.000000000000000000 ) ) ;
#335 = EDGE_CURVE ( 'NONE', #80, #12, #78, .T. ) ;
#336 = EDGE_LOOP ( 'NONE', ( #310, #1 ) ) ;
#337 = DIRECTION ( 'NONE',  ( 0.000000000000000000, 0.000000000000000000, 1.000000000000000000 ) ) ;
#338 = ORIENTED_EDGE ( 'NONE', *, *, #192, .F. ) ;
#339 = DIRECTION ( 'NONE',  ( 0.000000000000000000, 0.000000000000000000, -1.000000000000000000 ) ) ;
#340 = ORIENTED_EDGE ( 'NONE', *, *, #26, .F. ) ;
#341 = EDGE_CURVE ( 'NONE', #193, #132, #283, .T. ) ;
#342 = ORIENTED_EDGE ( 'NONE', *, *, #154, .T. ) ;
#343 = VECTOR ( 'NONE', #23, 1000.000000000000000 ) ;
#344 = PRODUCT_CONTEXT ( 'NONE', #307, 'mechanical' ) ;
#345 = ORIENTED_EDGE ( 'NONE', *, *, #308, .T. ) ;
#346 = CARTESIAN_POINT ( 'NONE',  ( 7.000000000000000000, 0.000000000000000000, 6.000000000000000000 ) ) ;
#347 = EDGE_LOOP ( 'NONE', ( #150, #342, #301, #261 ) ) ;
#348 = ORIENTED_EDGE ( 'NONE', *, *, #355, .F. ) ;
#349 = PRODUCT_DEFINITION_FORMATION_WITH_SPECIFIED_SOURCE ( 'ANY', '', #205, .NOT_KNOWN. ) ;
#350 = CARTESIAN_POINT ( 'NONE',  ( 7.000000000000000000, 0.000000000000000000, -6.000000000000000000 ) ) ;
#351 = EDGE_CURVE ( 'NONE', #4, #193, #3, .T. ) ;
#352 = CONICAL_SURFACE ( 'NONE', #2, 3.000000000000000000, 0.7853981633974485010 ) ;
#353 = SURFACE_STYLE_USAGE ( .BOTH. , #264 ) ;
#354 = CARTESIAN_POINT ( 'NONE',  ( 0.000000000000000000, -0.5415000000000003144, 0.000000000000000000 ) ) ;
#355 = EDGE_CURVE ( 'NONE', #177, #219, #31, .T. ) ;
#356 = CARTESIAN_POINT ( 'NONE',  ( 0.000000000000000000, -3.000000000000000000, 0.000000000000000000 ) ) ;
#357 = VECTOR ( 'NONE', #172, 1000.000000000000000 ) ;
#358 = DIRECTION ( 'NONE',  ( 0.000000000000000000, 1.000000000000000000, 0.000000000000000000 ) ) ;
#359 = ADVANCED_FACE ( 'CONE_1', ( #89 ), #352, .F. ) ;
#360 = CARTESIAN_POINT ( 'NONE',  ( -7.000000000000000000, 0.000000000000000000, -6.000000000000000000 ) ) ;
#361 = CYLINDRICAL_SURFACE ( 'NONE', #265, 2.458499999999999908 ) ;
ENDSEC;
END-ISO-10303-21;
