ISO-10303-21;
HEADER;
FILE_DESCRIPTION (( 'STEP AP214' ),
    '1' );
FILE_NAME ('1.31.FM5.STEP',
    '2024-10-09T15:45:38',
    ( '' ),
    ( '' ),
    'SwSTEP 2.0',
    'SolidWorks 2024',
    '' );
FILE_SCHEMA (( 'AUTOMOTIVE_DESIGN' ));
ENDSEC;

DATA;
#1 = CARTESIAN_POINT ( 'NONE',  ( 0.000000000000000000, -0.4329999999999997740, 0.000000000000000000 ) ) ;
#2 = VECTOR ( 'NONE', #146, 1000.000000000000000 ) ;
#3 = LINE ( 'NONE', #165, #131 ) ;
#4 = ADVANCED_FACE ( 'CONE_0', ( #228 ), #280, .F. ) ;
#5 = DIRECTION ( 'NONE',  ( 1.000000000000000000, 0.000000000000000000, 0.000000000000000000 ) ) ;
#6 = DIRECTION ( 'NONE',  ( 0.000000000000000000, 1.000000000000000000, 0.000000000000000000 ) ) ;
#7 = CARTESIAN_POINT ( 'NONE',  ( 0.000000000000000000, -2.567000000000000171, 0.000000000000000000 ) ) ;
#8 = DIRECTION ( 'NONE',  ( 0.000000000000000000, 0.000000000000000000, 1.000000000000000000 ) ) ;
#9 = FACE_OUTER_BOUND ( 'NONE', #107, .T. ) ;
#10 = FACE_BOUND ( 'NONE', #219, .T. ) ;
#11 = VECTOR ( 'NONE', #299, 1000.000000000000000 ) ;
#12 = ORIENTED_EDGE ( 'NONE', *, *, #37, .F. ) ;
#13 = ADVANCED_FACE ( 'PLANAR_0', ( #56, #311 ), #58, .T. ) ;
#14 = LINE ( 'NONE', #356, #295 ) ;
#15 = VERTEX_POINT ( 'NONE', #306 ) ;
#16 = CARTESIAN_POINT ( 'NONE',  ( -7.000000000000000000, 0.000000000000000000, 6.000000000000000000 ) ) ;
#17 = ORIENTED_EDGE ( 'NONE', *, *, #266, .T. ) ;
#18 = ADVANCED_FACE ( 'PLANAR_4', ( #61 ), #169, .F. ) ;
#19 = CARTESIAN_POINT ( 'NONE',  ( -7.000000000000000000, 0.000000000000000000, 6.000000000000000000 ) ) ;
#20 = EDGE_LOOP ( 'NONE', ( #241, #358, #104, #329 ) ) ;
#21 = AXIS2_PLACEMENT_3D ( 'NONE', #44, #156, #209 ) ;
#22 = DIRECTION ( 'NONE',  ( -0.000000000000000000, -1.000000000000000000, -0.000000000000000000 ) ) ;
#23 = VERTEX_POINT ( 'NONE', #137 ) ;
#24 = ORIENTED_EDGE ( 'NONE', *, *, #118, .T. ) ;
#25 = DIRECTION ( 'NONE',  ( 0.000000000000000000, 1.000000000000000000, 0.000000000000000000 ) ) ;
#26 = VECTOR ( 'NONE', #303, 1000.000000000000000 ) ;
#27 = AXIS2_PLACEMENT_3D ( 'NONE', #344, #41, #36 ) ;
#28 = UNCERTAINTY_MEASURE_WITH_UNIT (LENGTH_MEASURE( 1.000000000000000082E-05 ), #108, 'distance_accuracy_value', 'NONE');
#29 = LINE ( 'NONE', #256, #26 ) ;
#30 = CARTESIAN_POINT ( 'NONE',  ( 0.000000000000000000, 0.000000000000000000, 0.000000000000000000 ) ) ;
#31 = LINE ( 'NONE', #86, #52 ) ;
#32 = EDGE_CURVE ( 'NONE', #109, #75, #39, .T. ) ;
#33 = ORIENTED_EDGE ( 'NONE', *, *, #238, .T. ) ;
#34 = CIRCLE ( 'NONE', #220, 2.067000000000000171 ) ;
#35 = CARTESIAN_POINT ( 'NONE',  ( -7.000000000000000000, 0.000000000000000000, -6.000000000000000000 ) ) ;
#36 = DIRECTION ( 'NONE',  ( 0.000000000000000000, 0.000000000000000000, 1.000000000000000000 ) ) ;
#37 = EDGE_CURVE ( 'NONE', #15, #75, #166, .T. ) ;
#38 = DIRECTION ( 'NONE',  ( 1.000000000000000000, 0.000000000000000000, 0.000000000000000000 ) ) ;
#39 = CIRCLE ( 'NONE', #347, 2.067000000000000171 ) ;
#40 = LINE ( 'NONE', #282, #112 ) ;
#41 = DIRECTION ( 'NONE',  ( 0.000000000000000000, 1.000000000000000000, 0.000000000000000000 ) ) ;
#42 = FACE_OUTER_BOUND ( 'NONE', #128, .T. ) ;
#43 = VERTEX_POINT ( 'NONE', #278 ) ;
#44 = CARTESIAN_POINT ( 'NONE',  ( 0.000000000000000000, -3.000000000000000000, 0.000000000000000000 ) ) ;
#45 = CIRCLE ( 'NONE', #27, 2.500000000000000000 ) ;
#46 = ORIENTED_EDGE ( 'NONE', *, *, #285, .F. ) ;
#47 = DIRECTION ( 'NONE',  ( 0.000000000000000000, 0.000000000000000000, -1.000000000000000000 ) ) ;
#48 = EDGE_LOOP ( 'NONE', ( #213, #267, #326, #135 ) ) ;
#49 = EDGE_CURVE ( 'NONE', #292, #247, #31, .T. ) ;
#50 = CARTESIAN_POINT ( 'NONE',  ( 0.000000000000000000, -0.4329999999999997740, 0.000000000000000000 ) ) ;
#51 = ORIENTED_EDGE ( 'NONE', *, *, #262, .F. ) ;
#52 = VECTOR ( 'NONE', #63, 1000.000000000000000 ) ;
#53 = ORIENTED_EDGE ( 'NONE', *, *, #314, .T. ) ;
#54 = VECTOR ( 'NONE', #246, 1000.000000000000000 ) ;
#55 = SHAPE_DEFINITION_REPRESENTATION ( #283, #134 ) ;
#56 = FACE_OUTER_BOUND ( 'NONE', #130, .T. ) ;
#57 = EDGE_CURVE ( 'NONE', #160, #114, #101, .T. ) ;
#58 = PLANE ( 'NONE',  #150 ) ;
#59 = VERTEX_POINT ( 'NONE', #192 ) ;
#60 = AXIS2_PLACEMENT_3D ( 'NONE', #221, #93, #312 ) ;
#61 = FACE_OUTER_BOUND ( 'NONE', #275, .T. ) ;
#62 = EDGE_CURVE ( 'NONE', #110, #292, #29, .T. ) ;
#63 = DIRECTION ( 'NONE',  ( -1.000000000000000000, 0.000000000000000000, 0.000000000000000000 ) ) ;
#64 = FACE_OUTER_BOUND ( 'NONE', #225, .T. ) ;
#65 = CARTESIAN_POINT ( 'NONE',  ( -7.000000000000000000, 0.000000000000000000, -6.000000000000000000 ) ) ;
#66 = CARTESIAN_POINT ( 'NONE',  ( 3.061616997868383141E-16, -3.000000000000000000, 2.500000000000000000 ) ) ;
#67 = PRODUCT ( '1.31.FM5', '1.31.FM5', '', ( #248 ) ) ;
#68 = DIRECTION ( 'NONE',  ( 0.000000000000000000, 1.000000000000000000, 0.000000000000000000 ) ) ;
#69 = VECTOR ( 'NONE', #98, 1000.000000000000000 ) ;
#70 = CONICAL_SURFACE ( 'NONE', #321, 2.500000000000000000, 0.7853981633974482790 ) ;
#71 = AXIS2_PLACEMENT_3D ( 'NONE', #352, #155, #263 ) ;
#72 = CARTESIAN_POINT ( 'NONE',  ( 7.000000000000000000, -3.000000000000000000, 6.000000000000000000 ) ) ;
#73 = EDGE_CURVE ( 'NONE', #23, #84, #3, .T. ) ;
#74 = CARTESIAN_POINT ( 'NONE',  ( 7.000000000000000000, 0.000000000000000000, 6.000000000000000000 ) ) ;
#75 = VERTEX_POINT ( 'NONE', #250 ) ;
#76 = SURFACE_SIDE_STYLE ('',( #234 ) ) ;
#77 = ORIENTED_EDGE ( 'NONE', *, *, #73, .T. ) ;
#78 = VECTOR ( 'NONE', #149, 1000.000000000000000 ) ;
#79 = CARTESIAN_POINT ( 'NONE',  ( -7.000000000000000000, -3.000000000000000000, 6.000000000000000000 ) ) ;
#80 = AXIS2_PLACEMENT_3D ( 'NONE', #35, #5, #119 ) ;
#81 = EDGE_CURVE ( 'NONE', #157, #59, #359, .T. ) ;
#82 = ORIENTED_EDGE ( 'NONE', *, *, #152, .T. ) ;
#83 = ORIENTED_EDGE ( 'NONE', *, *, #253, .T. ) ;
#84 = VERTEX_POINT ( 'NONE', #72 ) ;
#85 = CIRCLE ( 'NONE', #139, 2.067000000000000171 ) ;
#86 = CARTESIAN_POINT ( 'NONE',  ( 7.000000000000000000, -3.000000000000000000, -6.000000000000000000 ) ) ;
#87 = EDGE_CURVE ( 'NONE', #59, #23, #204, .T. ) ;
#88 = ORIENTED_EDGE ( 'NONE', *, *, #175, .T. ) ;
#89 = DIRECTION ( 'NONE',  ( 0.000000000000000000, 0.000000000000000000, 1.000000000000000000 ) ) ;
#90 = DIRECTION ( 'NONE',  ( 1.000000000000000000, 0.000000000000000000, 0.000000000000000000 ) ) ;
#91 = DIRECTION ( 'NONE',  ( 0.000000000000000000, -0.000000000000000000, 1.000000000000000000 ) ) ;
#92 = ADVANCED_FACE ( 'CYL_0', ( #9 ), #317, .F. ) ;
#93 = DIRECTION ( 'NONE',  ( -1.000000000000000000, 0.000000000000000000, 0.000000000000000000 ) ) ;
#94 = CARTESIAN_POINT ( 'NONE',  ( 7.000000000000000000, 0.000000000000000000, -6.000000000000000000 ) ) ;
#95 = CARTESIAN_POINT ( 'NONE',  ( -7.000000000000000000, -3.000000000000000000, -6.000000000000000000 ) ) ;
#96 = AXIS2_PLACEMENT_3D ( 'NONE', #121, #230, #117 ) ;
#97 = EDGE_CURVE ( 'NONE', #247, #162, #200, .T. ) ;
#98 = DIRECTION ( 'NONE',  ( 0.000000000000000000, 0.000000000000000000, 1.000000000000000000 ) ) ;
#99 = DIRECTION ( 'NONE',  ( 0.000000000000000000, 1.000000000000000000, 0.000000000000000000 ) ) ;
#100 = LINE ( 'NONE', #66, #2 ) ;
#101 = CIRCLE ( 'NONE', #226, 2.500000000000000000 ) ;
#102 =( GEOMETRIC_REPRESENTATION_CONTEXT ( 3 ) GLOBAL_UNCERTAINTY_ASSIGNED_CONTEXT ( ( #304 ) ) GLOBAL_UNIT_ASSIGNED_CONTEXT ( ( #222, #142, #302 ) ) REPRESENTATION_CONTEXT ( 'NONE', 'WORKASPACE' ) );
#103 = DIRECTION ( 'NONE',  ( -0.000000000000000000, -1.000000000000000000, -0.000000000000000000 ) ) ;
#104 = ORIENTED_EDGE ( 'NONE', *, *, #238, .F. ) ;
#105 = FACE_OUTER_BOUND ( 'NONE', #20, .T. ) ;
#106 = ORIENTED_EDGE ( 'NONE', *, *, #62, .T. ) ;
#107 = EDGE_LOOP ( 'NONE', ( #164, #82, #300, #12 ) ) ;
#108 =( LENGTH_UNIT ( ) NAMED_UNIT ( * ) SI_UNIT ( .MILLI., .METRE. ) );
#109 = VERTEX_POINT ( 'NONE', #318 ) ;
#110 = VERTEX_POINT ( 'NONE', #94 ) ;
#111 = CARTESIAN_POINT ( 'NONE',  ( 0.000000000000000000, -0.4329999999999997740, 0.000000000000000000 ) ) ;
#112 = VECTOR ( 'NONE', #260, 1000.000000000000000 ) ;
#113 = ORIENTED_EDGE ( 'NONE', *, *, #87, .F. ) ;
#114 = VERTEX_POINT ( 'NONE', #236 ) ;
#115 = ORIENTED_EDGE ( 'NONE', *, *, #32, .F. ) ;
#116 = ORIENTED_EDGE ( 'NONE', *, *, #277, .T. ) ;
#117 = DIRECTION ( 'NONE',  ( 1.000000000000000000, 0.000000000000000000, -0.000000000000000000 ) ) ;
#118 = EDGE_CURVE ( 'NONE', #75, #114, #173, .T. ) ;
#119 = DIRECTION ( 'NONE',  ( 0.000000000000000000, 0.000000000000000000, -1.000000000000000000 ) ) ;
#120 = CONICAL_SURFACE ( 'NONE', #71, 2.067000000000000171, 0.7853981633974482790 ) ;
#121 = CARTESIAN_POINT ( 'NONE',  ( 7.000000000000000000, 0.000000000000000000, -6.000000000000000000 ) ) ;
#122 = DIRECTION ( 'NONE',  ( 0.000000000000000000, 0.000000000000000000, 1.000000000000000000 ) ) ;
#123 = EDGE_CURVE ( 'NONE', #15, #43, #100, .T. ) ;
#124 = LINE ( 'NONE', #159, #54 ) ;
#125 = VECTOR ( 'NONE', #313, 1000.000000000000000 ) ;
#126 = ORIENTED_EDGE ( 'NONE', *, *, #81, .T. ) ;
#127 = DIRECTION ( 'NONE',  ( 0.000000000000000000, 0.000000000000000000, 1.000000000000000000 ) ) ;
#128 = EDGE_LOOP ( 'NONE', ( #115, #88, #269, #294 ) ) ;
#129 = CARTESIAN_POINT ( 'NONE',  ( -7.000000000000000000, -3.000000000000000000, 6.000000000000000000 ) ) ;
#130 = EDGE_LOOP ( 'NONE', ( #126, #298, #141, #53 ) ) ;
#131 = VECTOR ( 'NONE', #274, 1000.000000000000000 ) ;
#132 = VECTOR ( 'NONE', #333, 1000.000000000000000 ) ;
#133 = DIRECTION ( 'NONE',  ( -1.000000000000000000, 0.000000000000000000, -0.000000000000000000 ) ) ;
#134 = ADVANCED_BREP_SHAPE_REPRESENTATION ( '1.31.FM5', ( #231, #334 ), #102 ) ;
#135 = ORIENTED_EDGE ( 'NONE', *, *, #266, .F. ) ;
#136 = ORIENTED_EDGE ( 'NONE', *, *, #285, .T. ) ;
#137 = CARTESIAN_POINT ( 'NONE',  ( 7.000000000000000000, 0.000000000000000000, 6.000000000000000000 ) ) ;
#138 = ORIENTED_EDGE ( 'NONE', *, *, #37, .T. ) ;
#139 = AXIS2_PLACEMENT_3D ( 'NONE', #7, #68, #8 ) ;
#140 = EDGE_CURVE ( 'NONE', #199, #15, #85, .T. ) ;
#141 = ORIENTED_EDGE ( 'NONE', *, *, #319, .T. ) ;
#142 =( NAMED_UNIT ( * ) PLANE_ANGLE_UNIT ( ) SI_UNIT ( $, .RADIAN. ) );
#143 = CARTESIAN_POINT ( 'NONE',  ( -7.000000000000000000, 0.000000000000000000, 6.000000000000000000 ) ) ;
#144 = ORIENTED_EDGE ( 'NONE', *, *, #273, .T. ) ;
#145 = CIRCLE ( 'NONE', #208, 2.500000000000000000 ) ;
#146 = DIRECTION ( 'NONE',  ( 8.659560562354931626E-17, -0.7071067811865475727, 0.7071067811865474617 ) ) ;
#147 = ADVANCED_FACE ( 'PLANAR_5', ( #154 ), #174, .F. ) ;
#148 = CARTESIAN_POINT ( 'NONE',  ( 2.531344933837579267E-16, -2.567000000000000171, -2.067000000000000171 ) ) ;
#149 = DIRECTION ( 'NONE',  ( 0.000000000000000000, 0.000000000000000000, 1.000000000000000000 ) ) ;
#150 = AXIS2_PLACEMENT_3D ( 'NONE', #143, #170, #91 ) ;
#151 = CIRCLE ( 'NONE', #349, 2.500000000000000000 ) ;
#152 = EDGE_CURVE ( 'NONE', #199, #109, #286, .T. ) ;
#153 = CARTESIAN_POINT ( 'NONE',  ( 3.061616997868383141E-16, 5.421010862427522170E-17, -2.500000000000000000 ) ) ;
#154 = FACE_OUTER_BOUND ( 'NONE', #182, .T. ) ;
#155 = DIRECTION ( 'NONE',  ( 0.000000000000000000, 1.000000000000000000, 0.000000000000000000 ) ) ;
#156 = DIRECTION ( 'NONE',  ( -0.000000000000000000, -1.000000000000000000, -0.000000000000000000 ) ) ;
#157 = VERTEX_POINT ( 'NONE', #207 ) ;
#158 = ADVANCED_FACE ( 'CYL_0', ( #206 ), #176, .F. ) ;
#159 = CARTESIAN_POINT ( 'NONE',  ( 7.000000000000000000, -3.000000000000000000, 6.000000000000000000 ) ) ;
#160 = VERTEX_POINT ( 'NONE', #153 ) ;
#161 = CARTESIAN_POINT ( 'NONE',  ( 0.000000000000000000, -3.000000000000000000, -2.500000000000000000 ) ) ;
#162 = VERTEX_POINT ( 'NONE', #343 ) ;
#163 = AXIS2_PLACEMENT_3D ( 'NONE', #261, #288, #284 ) ;
#164 = ORIENTED_EDGE ( 'NONE', *, *, #140, .F. ) ;
#165 = CARTESIAN_POINT ( 'NONE',  ( 7.000000000000000000, 0.000000000000000000, 6.000000000000000000 ) ) ;
#166 = LINE ( 'NONE', #223, #132 ) ;
#167 = DIRECTION ( 'NONE',  ( 0.000000000000000000, 0.000000000000000000, 1.000000000000000000 ) ) ;
#168 =( GEOMETRIC_REPRESENTATION_CONTEXT ( 3 ) GLOBAL_UNCERTAINTY_ASSIGNED_CONTEXT ( ( #28 ) ) GLOBAL_UNIT_ASSIGNED_CONTEXT ( ( #108, #325, #330 ) ) REPRESENTATION_CONTEXT ( 'NONE', 'WORKASPACE' ) );
#169 = PLANE ( 'NONE',  #60 ) ;
#170 = DIRECTION ( 'NONE',  ( 0.000000000000000000, 1.000000000000000000, 0.000000000000000000 ) ) ;
#171 = PRODUCT_RELATED_PRODUCT_CATEGORY ( 'part', '', ( #67 ) ) ;
#172 = PLANE ( 'NONE',  #80 ) ;
#173 = LINE ( 'NONE', #259, #125 ) ;
#174 = PLANE ( 'NONE',  #96 ) ;
#175 = EDGE_CURVE ( 'NONE', #109, #160, #40, .T. ) ;
#176 = CYLINDRICAL_SURFACE ( 'NONE', #163, 2.067000000000000171 ) ;
#177 = AXIS2_PLACEMENT_3D ( 'NONE', #345, #99, #122 ) ;
#178 = DIRECTION ( 'NONE',  ( 0.000000000000000000, 1.000000000000000000, 0.000000000000000000 ) ) ;
#179 = ORIENTED_EDGE ( 'NONE', *, *, #73, .F. ) ;
#180 = LINE ( 'NONE', #19, #281 ) ;
#181 = EDGE_CURVE ( 'NONE', #252, #43, #145, .T. ) ;
#182 = EDGE_LOOP ( 'NONE', ( #196, #51, #338, #106 ) ) ;
#183 = APPLICATION_CONTEXT ( 'automotive_design' ) ;
#184 = DIRECTION ( 'NONE',  ( -1.000000000000000000, 0.000000000000000000, 0.000000000000000000 ) ) ;
#185 = ORIENTED_EDGE ( 'NONE', *, *, #152, .F. ) ;
#186 = FACE_OUTER_BOUND ( 'NONE', #190, .T. ) ;
#187 = ORIENTED_EDGE ( 'NONE', *, *, #277, .F. ) ;
#188 = EDGE_CURVE ( 'NONE', #43, #252, #45, .T. ) ;
#189 = CARTESIAN_POINT ( 'NONE',  ( 0.000000000000000000, -3.000000000000000000, -2.500000000000000000 ) ) ;
#190 = EDGE_LOOP ( 'NONE', ( #361, #144, #17, #335 ) ) ;
#191 = AXIS2_PLACEMENT_3D ( 'NONE', #129, #244, #354 ) ;
#192 = CARTESIAN_POINT ( 'NONE',  ( -7.000000000000000000, 0.000000000000000000, 6.000000000000000000 ) ) ;
#193 = DIRECTION ( 'NONE',  ( 0.000000000000000000, 1.000000000000000000, 0.000000000000000000 ) ) ;
#194 = ORIENTED_EDGE ( 'NONE', *, *, #62, .F. ) ;
#195 = CARTESIAN_POINT ( 'NONE',  ( 0.000000000000000000, -3.000000000000000000, 0.000000000000000000 ) ) ;
#196 = ORIENTED_EDGE ( 'NONE', *, *, #49, .T. ) ;
#197 = STYLED_ITEM ( 'NONE', ( #268 ), #231 ) ;
#198 = PRODUCT_DEFINITION_CONTEXT ( 'detailed design', #254, 'design' ) ;
#199 = VERTEX_POINT ( 'NONE', #148 ) ;
#200 = LINE ( 'NONE', #258, #78 ) ;
#201 = AXIS2_PLACEMENT_3D ( 'NONE', #111, #193, #339 ) ;
#202 = FILL_AREA_STYLE_COLOUR ( '', #327 ) ;
#203 = VECTOR ( 'NONE', #237, 1000.000000000000000 ) ;
#204 = LINE ( 'NONE', #235, #233 ) ;
#205 = EDGE_CURVE ( 'NONE', #114, #160, #151, .T. ) ;
#206 = FACE_OUTER_BOUND ( 'NONE', #341, .T. ) ;
#207 = CARTESIAN_POINT ( 'NONE',  ( -7.000000000000000000, 0.000000000000000000, -6.000000000000000000 ) ) ;
#208 = AXIS2_PLACEMENT_3D ( 'NONE', #320, #178, #290 ) ;
#209 = DIRECTION ( 'NONE',  ( 0.000000000000000000, 0.000000000000000000, -1.000000000000000000 ) ) ;
#210 = LINE ( 'NONE', #271, #11 ) ;
#211 = ORIENTED_EDGE ( 'NONE', *, *, #205, .T. ) ;
#212 = PLANE ( 'NONE',  #191 ) ;
#213 = ORIENTED_EDGE ( 'NONE', *, *, #140, .T. ) ;
#214 = LINE ( 'NONE', #79, #315 ) ;
#215 = ADVANCED_FACE ( 'PLANAR_2', ( #64 ), #172, .F. ) ;
#216 = ORIENTED_EDGE ( 'NONE', *, *, #273, .F. ) ;
#217 = SURFACE_STYLE_USAGE ( .BOTH. , #76 ) ;
#218 = ORIENTED_EDGE ( 'NONE', *, *, #57, .F. ) ;
#219 = EDGE_LOOP ( 'NONE', ( #353, #305 ) ) ;
#220 = AXIS2_PLACEMENT_3D ( 'NONE', #323, #328, #348 ) ;
#221 = CARTESIAN_POINT ( 'NONE',  ( 7.000000000000000000, 0.000000000000000000, 6.000000000000000000 ) ) ;
#222 =( LENGTH_UNIT ( ) NAMED_UNIT ( * ) SI_UNIT ( .MILLI., .METRE. ) );
#223 = CARTESIAN_POINT ( 'NONE',  ( 0.000000000000000000, -3.000000000000000000, 2.067000000000000171 ) ) ;
#224 = DIRECTION ( 'NONE',  ( 0.000000000000000000, 0.000000000000000000, 1.000000000000000000 ) ) ;
#225 = EDGE_LOOP ( 'NONE', ( #331, #46, #324, #249 ) ) ;
#226 = AXIS2_PLACEMENT_3D ( 'NONE', #360, #279, #89 ) ;
#227 = PRESENTATION_LAYER_ASSIGNMENT (  '', '', ( #197 ) ) ;
#228 = FACE_OUTER_BOUND ( 'NONE', #355, .T. ) ;
#229 = VECTOR ( 'NONE', #47, 1000.000000000000000 ) ;
#230 = DIRECTION ( 'NONE',  ( 0.000000000000000000, -0.000000000000000000, 1.000000000000000000 ) ) ;
#231 = MANIFOLD_SOLID_BREP ( 'Body-Move/Copy1', #287 ) ;
#232 = DIRECTION ( 'NONE',  ( 0.000000000000000000, 1.000000000000000000, 0.000000000000000000 ) ) ;
#233 = VECTOR ( 'NONE', #38, 1000.000000000000000 ) ;
#234 = SURFACE_STYLE_FILL_AREA ( #316 ) ;
#235 = CARTESIAN_POINT ( 'NONE',  ( -7.000000000000000000, 0.000000000000000000, 6.000000000000000000 ) ) ;
#236 = CARTESIAN_POINT ( 'NONE',  ( 0.000000000000000000, 5.421010862427522170E-17, 2.500000000000000000 ) ) ;
#237 = DIRECTION ( 'NONE',  ( 0.000000000000000000, -0.7071067811865475727, -0.7071067811865474617 ) ) ;
#238 = EDGE_CURVE ( 'NONE', #84, #292, #124, .T. ) ;
#239 = CIRCLE ( 'NONE', #308, 2.067000000000000171 ) ;
#240 = LINE ( 'NONE', #161, #203 ) ;
#241 = ORIENTED_EDGE ( 'NONE', *, *, #97, .F. ) ;
#242 = LINE ( 'NONE', #74, #229 ) ;
#243 = ORIENTED_EDGE ( 'NONE', *, *, #205, .F. ) ;
#244 = DIRECTION ( 'NONE',  ( 0.000000000000000000, 1.000000000000000000, 0.000000000000000000 ) ) ;
#245 = AXIS2_PLACEMENT_3D ( 'NONE', #16, #291, #133 ) ;
#246 = DIRECTION ( 'NONE',  ( 0.000000000000000000, 0.000000000000000000, -1.000000000000000000 ) ) ;
#247 = VERTEX_POINT ( 'NONE', #95 ) ;
#248 = PRODUCT_CONTEXT ( 'NONE', #183, 'mechanical' ) ;
#249 = ORIENTED_EDGE ( 'NONE', *, *, #262, .T. ) ;
#250 = CARTESIAN_POINT ( 'NONE',  ( 0.000000000000000000, -0.4329999999999997740, 2.067000000000000171 ) ) ;
#251 = EDGE_LOOP ( 'NONE', ( #243, #218 ) ) ;
#252 = VERTEX_POINT ( 'NONE', #189 ) ;
#253 = EDGE_CURVE ( 'NONE', #162, #84, #214, .T. ) ;
#254 = APPLICATION_CONTEXT ( 'automotive_design' ) ;
#255 = ORIENTED_EDGE ( 'NONE', *, *, #175, .F. ) ;
#256 = CARTESIAN_POINT ( 'NONE',  ( 7.000000000000000000, 0.000000000000000000, -6.000000000000000000 ) ) ;
#257 = DIRECTION ( 'NONE',  ( 0.000000000000000000, 0.000000000000000000, 1.000000000000000000 ) ) ;
#258 = CARTESIAN_POINT ( 'NONE',  ( -7.000000000000000000, -3.000000000000000000, -6.000000000000000000 ) ) ;
#259 = CARTESIAN_POINT ( 'NONE',  ( 0.000000000000000000, -0.4329999999999997740, 2.067000000000000171 ) ) ;
#260 = DIRECTION ( 'NONE',  ( 8.659560562354931626E-17, 0.7071067811865475727, -0.7071067811865474617 ) ) ;
#261 = CARTESIAN_POINT ( 'NONE',  ( 0.000000000000000000, -3.000000000000000000, 0.000000000000000000 ) ) ;
#262 = EDGE_CURVE ( 'NONE', #157, #247, #210, .T. ) ;
#263 = DIRECTION ( 'NONE',  ( 0.000000000000000000, 0.000000000000000000, 1.000000000000000000 ) ) ;
#264 = EDGE_LOOP ( 'NONE', ( #83, #179, #113, #136 ) ) ;
#265 = FACE_OUTER_BOUND ( 'NONE', #264, .T. ) ;
#266 = EDGE_CURVE ( 'NONE', #199, #252, #240, .T. ) ;
#267 = ORIENTED_EDGE ( 'NONE', *, *, #123, .T. ) ;
#268 = PRESENTATION_STYLE_ASSIGNMENT (( #217 ) ) ;
#269 = ORIENTED_EDGE ( 'NONE', *, *, #57, .T. ) ;
#270 = VECTOR ( 'NONE', #232, 1000.000000000000000 ) ;
#271 = CARTESIAN_POINT ( 'NONE',  ( -7.000000000000000000, 0.000000000000000000, -6.000000000000000000 ) ) ;
#272 = DIRECTION ( 'NONE',  ( 0.000000000000000000, 0.000000000000000000, -1.000000000000000000 ) ) ;
#273 = EDGE_CURVE ( 'NONE', #15, #199, #34, .T. ) ;
#274 = DIRECTION ( 'NONE',  ( -0.000000000000000000, -1.000000000000000000, -0.000000000000000000 ) ) ;
#275 = EDGE_LOOP ( 'NONE', ( #33, #194, #276, #77 ) ) ;
#276 = ORIENTED_EDGE ( 'NONE', *, *, #319, .F. ) ;
#277 = EDGE_CURVE ( 'NONE', #75, #109, #239, .T. ) ;
#278 = CARTESIAN_POINT ( 'NONE',  ( 3.061616997868383141E-16, -3.000000000000000000, 2.500000000000000000 ) ) ;
#279 = DIRECTION ( 'NONE',  ( 0.000000000000000000, 1.000000000000000000, 0.000000000000000000 ) ) ;
#280 = CONICAL_SURFACE ( 'NONE', #201, 2.067000000000000171, 0.7853981633974482790 ) ;
#281 = VECTOR ( 'NONE', #103, 1000.000000000000000 ) ;
#282 = CARTESIAN_POINT ( 'NONE',  ( 2.531344933837579267E-16, -0.4329999999999997740, -2.067000000000000171 ) ) ;
#283 = PRODUCT_DEFINITION_SHAPE ( 'NONE', 'NONE',  #337 ) ;
#284 = DIRECTION ( 'NONE',  ( 0.000000000000000000, 0.000000000000000000, 1.000000000000000000 ) ) ;
#285 = EDGE_CURVE ( 'NONE', #59, #162, #180, .T. ) ;
#286 = LINE ( 'NONE', #346, #270 ) ;
#287 = CLOSED_SHELL ( 'NONE', ( #301, #92, #332, #13, #351, #215, #307, #18, #147, #4, #158, #357 ) ) ;
#288 = DIRECTION ( 'NONE',  ( 0.000000000000000000, 1.000000000000000000, 0.000000000000000000 ) ) ;
#289 = CONICAL_SURFACE ( 'NONE', #21, 2.500000000000000000, 0.7853981633974482790 ) ;
#290 = DIRECTION ( 'NONE',  ( 0.000000000000000000, 0.000000000000000000, 1.000000000000000000 ) ) ;
#291 = DIRECTION ( 'NONE',  ( 0.000000000000000000, 0.000000000000000000, -1.000000000000000000 ) ) ;
#292 = VERTEX_POINT ( 'NONE', #293 ) ;
#293 = CARTESIAN_POINT ( 'NONE',  ( 7.000000000000000000, -3.000000000000000000, -6.000000000000000000 ) ) ;
#294 = ORIENTED_EDGE ( 'NONE', *, *, #118, .F. ) ;
#295 = VECTOR ( 'NONE', #184, 1000.000000000000000 ) ;
#296 = DIRECTION ( 'NONE',  ( 0.000000000000000000, 1.000000000000000000, 0.000000000000000000 ) ) ;
#297 = FACE_OUTER_BOUND ( 'NONE', #48, .T. ) ;
#298 = ORIENTED_EDGE ( 'NONE', *, *, #87, .T. ) ;
#299 = DIRECTION ( 'NONE',  ( -0.000000000000000000, -1.000000000000000000, -0.000000000000000000 ) ) ;
#300 = ORIENTED_EDGE ( 'NONE', *, *, #32, .T. ) ;
#301 = ADVANCED_FACE ( 'CONE_1', ( #297 ), #289, .F. ) ;
#302 =( NAMED_UNIT ( * ) SI_UNIT ( $, .STERADIAN. ) SOLID_ANGLE_UNIT ( ) );
#303 = DIRECTION ( 'NONE',  ( -0.000000000000000000, -1.000000000000000000, -0.000000000000000000 ) ) ;
#304 = UNCERTAINTY_MEASURE_WITH_UNIT (LENGTH_MEASURE( 1.000000000000000082E-05 ), #222, 'distance_accuracy_value', 'NONE');
#305 = ORIENTED_EDGE ( 'NONE', *, *, #188, .T. ) ;
#306 = CARTESIAN_POINT ( 'NONE',  ( 0.000000000000000000, -2.567000000000000171, 2.067000000000000171 ) ) ;
#307 = ADVANCED_FACE ( 'PLANAR_3', ( #265 ), #322, .F. ) ;
#308 = AXIS2_PLACEMENT_3D ( 'NONE', #50, #296, #127 ) ;
#309 = APPLICATION_PROTOCOL_DEFINITION ( 'draft international standard', 'automotive_design', 1998, #183 ) ;
#310 = PRODUCT_DEFINITION_FORMATION_WITH_SPECIFIED_SOURCE ( 'ANY', '', #67, .NOT_KNOWN. ) ;
#311 = FACE_BOUND ( 'NONE', #251, .T. ) ;
#312 = DIRECTION ( 'NONE',  ( 0.000000000000000000, 0.000000000000000000, 1.000000000000000000 ) ) ;
#313 = DIRECTION ( 'NONE',  ( 0.000000000000000000, 0.7071067811865475727, 0.7071067811865474617 ) ) ;
#314 = EDGE_CURVE ( 'NONE', #110, #157, #14, .T. ) ;
#315 = VECTOR ( 'NONE', #350, 1000.000000000000000 ) ;
#316 = FILL_AREA_STYLE ('',( #202 ) ) ;
#317 = CYLINDRICAL_SURFACE ( 'NONE', #177, 2.067000000000000171 ) ;
#318 = CARTESIAN_POINT ( 'NONE',  ( 2.796480965852981451E-16, -0.4329999999999997740, -2.067000000000000171 ) ) ;
#319 = EDGE_CURVE ( 'NONE', #23, #110, #242, .T. ) ;
#320 = CARTESIAN_POINT ( 'NONE',  ( 0.000000000000000000, -3.000000000000000000, 0.000000000000000000 ) ) ;
#321 = AXIS2_PLACEMENT_3D ( 'NONE', #195, #22, #272 ) ;
#322 = PLANE ( 'NONE',  #245 ) ;
#323 = CARTESIAN_POINT ( 'NONE',  ( 0.000000000000000000, -2.567000000000000171, 0.000000000000000000 ) ) ;
#324 = ORIENTED_EDGE ( 'NONE', *, *, #81, .F. ) ;
#325 =( NAMED_UNIT ( * ) PLANE_ANGLE_UNIT ( ) SI_UNIT ( $, .RADIAN. ) );
#326 = ORIENTED_EDGE ( 'NONE', *, *, #181, .F. ) ;
#327 = COLOUR_RGB ( '',0.7921568627450980005, 0.8196078431372548767, 0.9333333333333333481 ) ;
#328 = DIRECTION ( 'NONE',  ( 0.000000000000000000, 1.000000000000000000, 0.000000000000000000 ) ) ;
#329 = ORIENTED_EDGE ( 'NONE', *, *, #253, .F. ) ;
#330 =( NAMED_UNIT ( * ) SI_UNIT ( $, .STERADIAN. ) SOLID_ANGLE_UNIT ( ) );
#331 = ORIENTED_EDGE ( 'NONE', *, *, #97, .T. ) ;
#332 = ADVANCED_FACE ( 'CONE_0', ( #42 ), #120, .F. ) ;
#333 = DIRECTION ( 'NONE',  ( 0.000000000000000000, 1.000000000000000000, 0.000000000000000000 ) ) ;
#334 = AXIS2_PLACEMENT_3D ( 'NONE', #30, #224, #90 ) ;
#335 = ORIENTED_EDGE ( 'NONE', *, *, #188, .F. ) ;
#336 = APPLICATION_PROTOCOL_DEFINITION ( 'draft international standard', 'automotive_design', 1998, #254 ) ;
#337 = PRODUCT_DEFINITION ( 'UNKNOWN', '', #310, #198 ) ;
#338 = ORIENTED_EDGE ( 'NONE', *, *, #314, .F. ) ;
#339 = DIRECTION ( 'NONE',  ( 0.000000000000000000, 0.000000000000000000, 1.000000000000000000 ) ) ;
#340 = MECHANICAL_DESIGN_GEOMETRIC_PRESENTATION_REPRESENTATION (  '', ( #197 ), #168 ) ;
#341 = EDGE_LOOP ( 'NONE', ( #185, #216, #138, #116 ) ) ;
#342 = CARTESIAN_POINT ( 'NONE',  ( 0.000000000000000000, 0.000000000000000000, 0.000000000000000000 ) ) ;
#343 = CARTESIAN_POINT ( 'NONE',  ( -7.000000000000000000, -3.000000000000000000, 6.000000000000000000 ) ) ;
#344 = CARTESIAN_POINT ( 'NONE',  ( 0.000000000000000000, -3.000000000000000000, 0.000000000000000000 ) ) ;
#345 = CARTESIAN_POINT ( 'NONE',  ( 0.000000000000000000, -3.000000000000000000, 0.000000000000000000 ) ) ;
#346 = CARTESIAN_POINT ( 'NONE',  ( 2.531344933837579267E-16, -3.000000000000000000, -2.067000000000000171 ) ) ;
#347 = AXIS2_PLACEMENT_3D ( 'NONE', #1, #25, #167 ) ;
#348 = DIRECTION ( 'NONE',  ( 0.000000000000000000, 0.000000000000000000, 1.000000000000000000 ) ) ;
#349 = AXIS2_PLACEMENT_3D ( 'NONE', #342, #6, #257 ) ;
#350 = DIRECTION ( 'NONE',  ( 1.000000000000000000, 0.000000000000000000, 0.000000000000000000 ) ) ;
#351 = ADVANCED_FACE ( 'PLANAR_1', ( #105, #10 ), #212, .F. ) ;
#352 = CARTESIAN_POINT ( 'NONE',  ( 0.000000000000000000, -0.4329999999999997740, 0.000000000000000000 ) ) ;
#353 = ORIENTED_EDGE ( 'NONE', *, *, #181, .T. ) ;
#354 = DIRECTION ( 'NONE',  ( 0.000000000000000000, -0.000000000000000000, 1.000000000000000000 ) ) ;
#355 = EDGE_LOOP ( 'NONE', ( #255, #187, #24, #211 ) ) ;
#356 = CARTESIAN_POINT ( 'NONE',  ( 7.000000000000000000, 0.000000000000000000, -6.000000000000000000 ) ) ;
#357 = ADVANCED_FACE ( 'CONE_1', ( #186 ), #70, .F. ) ;
#358 = ORIENTED_EDGE ( 'NONE', *, *, #49, .F. ) ;
#359 = LINE ( 'NONE', #65, #69 ) ;
#360 = CARTESIAN_POINT ( 'NONE',  ( 0.000000000000000000, 0.000000000000000000, 0.000000000000000000 ) ) ;
#361 = ORIENTED_EDGE ( 'NONE', *, *, #123, .F. ) ;
ENDSEC;
END-ISO-10303-21;
