ISO-10303-21;
HEADER;
FILE_DESCRIPTION (( 'STEP AP214' ),
    '1' );
FILE_NAME ('1.31.FM4.STEP',
    '2024-10-09T15:45:12',
    ( '' ),
    ( '' ),
    'SwSTEP 2.0',
    'SolidWorks 2024',
    '' );
FILE_SCHEMA (( 'AUTOMOTIVE_DESIGN' ));
ENDSEC;

DATA;
#1 = DIRECTION ( 'NONE',  ( 0.000000000000000000, 0.000000000000000000, -1.000000000000000000 ) ) ;
#2 = VECTOR ( 'NONE', #187, 1000.000000000000000 ) ;
#3 = ORIENTED_EDGE ( 'NONE', *, *, #309, .T. ) ;
#4 = CARTESIAN_POINT ( 'NONE',  ( -7.000000000000000000, -3.000000000000000000, 6.000000000000000000 ) ) ;
#5 = ORIENTED_EDGE ( 'NONE', *, *, #67, .F. ) ;
#6 = CARTESIAN_POINT ( 'NONE',  ( 0.000000000000000000, -3.000000000000000000, 0.000000000000000000 ) ) ;
#7 = VECTOR ( 'NONE', #161, 1000.000000000000000 ) ;
#8 = ORIENTED_EDGE ( 'NONE', *, *, #150, .T. ) ;
#9 = ADVANCED_FACE ( 'CYL_0', ( #275 ), #128, .F. ) ;
#10 = DIRECTION ( 'NONE',  ( 0.000000000000000000, 0.000000000000000000, 1.000000000000000000 ) ) ;
#11 = ORIENTED_EDGE ( 'NONE', *, *, #264, .F. ) ;
#12 =( GEOMETRIC_REPRESENTATION_CONTEXT ( 3 ) GLOBAL_UNCERTAINTY_ASSIGNED_CONTEXT ( ( #279 ) ) GLOBAL_UNIT_ASSIGNED_CONTEXT ( ( #65, #225, #90 ) ) REPRESENTATION_CONTEXT ( 'NONE', 'WORKASPACE' ) );
#13 = EDGE_CURVE ( 'NONE', #137, #230, #166, .T. ) ;
#14 = LINE ( 'NONE', #100, #158 ) ;
#15 = DIRECTION ( 'NONE',  ( 0.000000000000000000, 0.000000000000000000, -1.000000000000000000 ) ) ;
#16 = DIRECTION ( 'NONE',  ( 0.000000000000000000, 1.000000000000000000, 0.000000000000000000 ) ) ;
#17 = CARTESIAN_POINT ( 'NONE',  ( 7.000000000000000000, 0.000000000000000000, -6.000000000000000000 ) ) ;
#18 = LINE ( 'NONE', #245, #40 ) ;
#19 = EDGE_CURVE ( 'NONE', #60, #137, #77, .T. ) ;
#20 = EDGE_CURVE ( 'NONE', #109, #206, #18, .T. ) ;
#21 = DIRECTION ( 'NONE',  ( 0.000000000000000000, 1.000000000000000000, 0.000000000000000000 ) ) ;
#22 = PRODUCT_DEFINITION_SHAPE ( 'NONE', 'NONE',  #179 ) ;
#23 = ADVANCED_FACE ( 'PLANAR_5', ( #78 ), #102, .F. ) ;
#24 = COLOUR_RGB ( '',0.7921568627450980005, 0.8196078431372548767, 0.9333333333333333481 ) ;
#25 = CARTESIAN_POINT ( 'NONE',  ( 7.000000000000000000, 0.000000000000000000, 6.000000000000000000 ) ) ;
#26 = ORIENTED_EDGE ( 'NONE', *, *, #221, .F. ) ;
#27 = DIRECTION ( 'NONE',  ( 0.000000000000000000, 1.000000000000000000, 0.000000000000000000 ) ) ;
#28 = CARTESIAN_POINT ( 'NONE',  ( 0.000000000000000000, 0.000000000000000000, 0.000000000000000000 ) ) ;
#29 = ORIENTED_EDGE ( 'NONE', *, *, #51, .F. ) ;
#30 = AXIS2_PLACEMENT_3D ( 'NONE', #6, #57, #207 ) ;
#31 = SURFACE_STYLE_USAGE ( .BOTH. , #313 ) ;
#32 = EDGE_LOOP ( 'NONE', ( #249, #201 ) ) ;
#33 = VERTEX_POINT ( 'NONE', #353 ) ;
#34 = EDGE_LOOP ( 'NONE', ( #319, #199, #124, #29 ) ) ;
#35 = CARTESIAN_POINT ( 'NONE',  ( 0.000000000000000000, 0.000000000000000000, 0.000000000000000000 ) ) ;
#36 = SHAPE_DEFINITION_REPRESENTATION ( #22, #190 ) ;
#37 = PLANE ( 'NONE',  #112 ) ;
#38 = ORIENTED_EDGE ( 'NONE', *, *, #250, .T. ) ;
#39 = DIRECTION ( 'NONE',  ( 0.000000000000000000, 0.000000000000000000, 1.000000000000000000 ) ) ;
#40 = VECTOR ( 'NONE', #352, 1000.000000000000000 ) ;
#41 = EDGE_CURVE ( 'NONE', #232, #320, #314, .T. ) ;
#42 = DIRECTION ( 'NONE',  ( -0.000000000000000000, -1.000000000000000000, -0.000000000000000000 ) ) ;
#43 = ORIENTED_EDGE ( 'NONE', *, *, #104, .T. ) ;
#44 = CARTESIAN_POINT ( 'NONE',  ( 1.985152461417859467E-16, -0.3790000000000000036, -1.620999999999999996 ) ) ;
#45 = DIRECTION ( 'NONE',  ( 8.659560562354931626E-17, -0.7071067811865475727, 0.7071067811865474617 ) ) ;
#46 = CARTESIAN_POINT ( 'NONE',  ( 7.000000000000000000, -3.000000000000000000, 6.000000000000000000 ) ) ;
#47 = AXIS2_PLACEMENT_3D ( 'NONE', #189, #270, #296 ) ;
#48 = ADVANCED_FACE ( 'PLANAR_1', ( #105, #222 ), #219, .F. ) ;
#49 = DIRECTION ( 'NONE',  ( 1.000000000000000000, 0.000000000000000000, -0.000000000000000000 ) ) ;
#50 = AXIS2_PLACEMENT_3D ( 'NONE', #243, #70, #147 ) ;
#51 = EDGE_CURVE ( 'NONE', #109, #115, #134, .T. ) ;
#52 = DIRECTION ( 'NONE',  ( 0.000000000000000000, 1.000000000000000000, 0.000000000000000000 ) ) ;
#53 = DIRECTION ( 'NONE',  ( 0.000000000000000000, -0.000000000000000000, 1.000000000000000000 ) ) ;
#54 = VECTOR ( 'NONE', #192, 1000.000000000000000 ) ;
#55 = ORIENTED_EDGE ( 'NONE', *, *, #316, .F. ) ;
#56 = CARTESIAN_POINT ( 'NONE',  ( -7.000000000000000000, 0.000000000000000000, -6.000000000000000000 ) ) ;
#57 = DIRECTION ( 'NONE',  ( 0.000000000000000000, 1.000000000000000000, 0.000000000000000000 ) ) ;
#58 = ORIENTED_EDGE ( 'NONE', *, *, #274, .F. ) ;
#59 = DIRECTION ( 'NONE',  ( 0.000000000000000000, 1.000000000000000000, 0.000000000000000000 ) ) ;
#60 = VERTEX_POINT ( 'NONE', #195 ) ;
#61 = DIRECTION ( 'NONE',  ( 0.000000000000000000, 0.000000000000000000, -1.000000000000000000 ) ) ;
#62 = ORIENTED_EDGE ( 'NONE', *, *, #340, .F. ) ;
#63 = EDGE_CURVE ( 'NONE', #226, #109, #72, .T. ) ;
#64 = APPLICATION_CONTEXT ( 'automotive_design' ) ;
#65 =( LENGTH_UNIT ( ) NAMED_UNIT ( * ) SI_UNIT ( .MILLI., .METRE. ) );
#66 = ORIENTED_EDGE ( 'NONE', *, *, #260, .F. ) ;
#67 = EDGE_CURVE ( 'NONE', #89, #283, #106, .T. ) ;
#68 = AXIS2_PLACEMENT_3D ( 'NONE', #127, #75, #10 ) ;
#69 = DIRECTION ( 'NONE',  ( 1.000000000000000000, 0.000000000000000000, 0.000000000000000000 ) ) ;
#70 = DIRECTION ( 'NONE',  ( 0.000000000000000000, 1.000000000000000000, 0.000000000000000000 ) ) ;
#71 = CARTESIAN_POINT ( 'NONE',  ( -7.000000000000000000, 0.000000000000000000, 6.000000000000000000 ) ) ;
#72 = CIRCLE ( 'NONE', #186, 1.620999999999999996 ) ;
#73 = DIRECTION ( 'NONE',  ( -0.000000000000000000, -1.000000000000000000, -0.000000000000000000 ) ) ;
#74 = ORIENTED_EDGE ( 'NONE', *, *, #347, .F. ) ;
#75 = DIRECTION ( 'NONE',  ( 0.000000000000000000, 1.000000000000000000, 0.000000000000000000 ) ) ;
#76 = CARTESIAN_POINT ( 'NONE',  ( -7.000000000000000000, 0.000000000000000000, -6.000000000000000000 ) ) ;
#77 = LINE ( 'NONE', #17, #332 ) ;
#78 = FACE_OUTER_BOUND ( 'NONE', #165, .T. ) ;
#79 = CARTESIAN_POINT ( 'NONE',  ( 0.000000000000000000, -3.000000000000000000, -2.000000000000000000 ) ) ;
#80 = PRESENTATION_STYLE_ASSIGNMENT (( #31 ) ) ;
#81 = ORIENTED_EDGE ( 'NONE', *, *, #309, .F. ) ;
#82 = FACE_OUTER_BOUND ( 'NONE', #171, .T. ) ;
#83 = ORIENTED_EDGE ( 'NONE', *, *, #104, .F. ) ;
#84 = LINE ( 'NONE', #205, #164 ) ;
#85 = AXIS2_PLACEMENT_3D ( 'NONE', #214, #242, #15 ) ;
#86 = ORIENTED_EDGE ( 'NONE', *, *, #63, .T. ) ;
#87 = ADVANCED_FACE ( 'CYL_0', ( #331 ), #278, .F. ) ;
#88 = DIRECTION ( 'NONE',  ( -0.000000000000000000, -1.000000000000000000, -0.000000000000000000 ) ) ;
#89 = VERTEX_POINT ( 'NONE', #223 ) ;
#90 =( NAMED_UNIT ( * ) SI_UNIT ( $, .STERADIAN. ) SOLID_ANGLE_UNIT ( ) );
#91 = VECTOR ( 'NONE', #200, 1000.000000000000000 ) ;
#92 = ORIENTED_EDGE ( 'NONE', *, *, #197, .F. ) ;
#93 = AXIS2_PLACEMENT_3D ( 'NONE', #107, #196, #273 ) ;
#94 = CARTESIAN_POINT ( 'NONE',  ( -7.000000000000000000, -3.000000000000000000, -6.000000000000000000 ) ) ;
#95 = DIRECTION ( 'NONE',  ( 1.000000000000000000, 0.000000000000000000, 0.000000000000000000 ) ) ;
#96 = AXIS2_PLACEMENT_3D ( 'NONE', #35, #39, #69 ) ;
#97 = DIRECTION ( 'NONE',  ( 0.000000000000000000, 0.7071067811865475727, 0.7071067811865474617 ) ) ;
#98 = FACE_OUTER_BOUND ( 'NONE', #302, .T. ) ;
#99 = VERTEX_POINT ( 'NONE', #25 ) ;
#100 = CARTESIAN_POINT ( 'NONE',  ( 0.000000000000000000, -0.3790000000000000036, 1.620999999999999996 ) ) ;
#101 = AXIS2_PLACEMENT_3D ( 'NONE', #335, #27, #159 ) ;
#102 = PLANE ( 'NONE',  #182 ) ;
#103 = VECTOR ( 'NONE', #45, 1000.000000000000000 ) ;
#104 = EDGE_CURVE ( 'NONE', #137, #283, #281, .T. ) ;
#105 = FACE_OUTER_BOUND ( 'NONE', #252, .T. ) ;
#106 = LINE ( 'NONE', #251, #7 ) ;
#107 = CARTESIAN_POINT ( 'NONE',  ( 0.000000000000000000, -3.000000000000000000, 0.000000000000000000 ) ) ;
#108 = VECTOR ( 'NONE', #42, 1000.000000000000000 ) ;
#109 = VERTEX_POINT ( 'NONE', #310 ) ;
#110 = DIRECTION ( 'NONE',  ( 1.000000000000000000, 0.000000000000000000, 0.000000000000000000 ) ) ;
#111 = EDGE_LOOP ( 'NONE', ( #58, #114, #122, #74 ) ) ;
#112 = AXIS2_PLACEMENT_3D ( 'NONE', #151, #16, #178 ) ;
#113 = CARTESIAN_POINT ( 'NONE',  ( -7.000000000000000000, 0.000000000000000000, -6.000000000000000000 ) ) ;
#114 = ORIENTED_EDGE ( 'NONE', *, *, #20, .T. ) ;
#115 = VERTEX_POINT ( 'NONE', #305 ) ;
#116 = PLANE ( 'NONE',  #238 ) ;
#117 = AXIS2_PLACEMENT_3D ( 'NONE', #229, #59, #234 ) ;
#118 = ORIENTED_EDGE ( 'NONE', *, *, #347, .T. ) ;
#119 = LINE ( 'NONE', #325, #342 ) ;
#120 = MECHANICAL_DESIGN_GEOMETRIC_PRESENTATION_REPRESENTATION (  '', ( #233 ), #12 ) ;
#121 = CARTESIAN_POINT ( 'NONE',  ( 7.000000000000000000, 0.000000000000000000, -6.000000000000000000 ) ) ;
#122 = ORIENTED_EDGE ( 'NONE', *, *, #197, .T. ) ;
#123 = PLANE ( 'NONE',  #323 ) ;
#124 = ORIENTED_EDGE ( 'NONE', *, *, #349, .F. ) ;
#125 = LINE ( 'NONE', #350, #103 ) ;
#126 = ADVANCED_FACE ( 'CONE_0', ( #282 ), #277, .F. ) ;
#127 = CARTESIAN_POINT ( 'NONE',  ( 0.000000000000000000, -0.3790000000000000036, 0.000000000000000000 ) ) ;
#128 = CYLINDRICAL_SURFACE ( 'NONE', #93, 1.620999999999999996 ) ;
#129 = DIRECTION ( 'NONE',  ( -1.000000000000000000, 0.000000000000000000, 0.000000000000000000 ) ) ;
#130 =( GEOMETRIC_REPRESENTATION_CONTEXT ( 3 ) GLOBAL_UNCERTAINTY_ASSIGNED_CONTEXT ( ( #357 ) ) GLOBAL_UNIT_ASSIGNED_CONTEXT ( ( #294, #177, #146 ) ) REPRESENTATION_CONTEXT ( 'NONE', 'WORKASPACE' ) );
#131 = DIRECTION ( 'NONE',  ( 0.000000000000000000, 1.000000000000000000, 0.000000000000000000 ) ) ;
#132 = EDGE_LOOP ( 'NONE', ( #344, #289, #118, #38 ) ) ;
#133 = EDGE_LOOP ( 'NONE', ( #92, #361, #8, #81 ) ) ;
#134 = LINE ( 'NONE', #79, #291 ) ;
#135 = DIRECTION ( 'NONE',  ( 0.000000000000000000, 1.000000000000000000, 0.000000000000000000 ) ) ;
#136 = CIRCLE ( 'NONE', #68, 1.620999999999999996 ) ;
#137 = VERTEX_POINT ( 'NONE', #113 ) ;
#138 = EDGE_CURVE ( 'NONE', #99, #60, #84, .T. ) ;
#139 = LINE ( 'NONE', #258, #345 ) ;
#140 = EDGE_LOOP ( 'NONE', ( #312, #26, #339, #333 ) ) ;
#141 = PRODUCT_DEFINITION_CONTEXT ( 'detailed design', #203, 'design' ) ;
#142 = AXIS2_PLACEMENT_3D ( 'NONE', #351, #303, #271 ) ;
#143 = CARTESIAN_POINT ( 'NONE',  ( 0.000000000000000000, 0.000000000000000000, 2.000000000000000000 ) ) ;
#144 = ORIENTED_EDGE ( 'NONE', *, *, #13, .F. ) ;
#145 = CARTESIAN_POINT ( 'NONE',  ( 7.000000000000000000, 0.000000000000000000, 6.000000000000000000 ) ) ;
#146 =( NAMED_UNIT ( * ) SI_UNIT ( $, .STERADIAN. ) SOLID_ANGLE_UNIT ( ) );
#147 = DIRECTION ( 'NONE',  ( 0.000000000000000000, 0.000000000000000000, 1.000000000000000000 ) ) ;
#148 = CIRCLE ( 'NONE', #248, 2.000000000000000000 ) ;
#149 = MANIFOLD_SOLID_BREP ( 'Body-Move/Copy1', #257 ) ;
#150 = EDGE_CURVE ( 'NONE', #320, #232, #220, .T. ) ;
#151 = CARTESIAN_POINT ( 'NONE',  ( -7.000000000000000000, 0.000000000000000000, 6.000000000000000000 ) ) ;
#152 = ADVANCED_FACE ( 'PLANAR_4', ( #82 ), #116, .F. ) ;
#153 = DIRECTION ( 'NONE',  ( -1.000000000000000000, 0.000000000000000000, -0.000000000000000000 ) ) ;
#154 = LINE ( 'NONE', #121, #108 ) ;
#155 = VECTOR ( 'NONE', #110, 1000.000000000000000 ) ;
#156 = CARTESIAN_POINT ( 'NONE',  ( -7.000000000000000000, 0.000000000000000000, -6.000000000000000000 ) ) ;
#157 = DIRECTION ( 'NONE',  ( 0.000000000000000000, -0.7071067811865475727, -0.7071067811865474617 ) ) ;
#158 = VECTOR ( 'NONE', #97, 1000.000000000000000 ) ;
#159 = DIRECTION ( 'NONE',  ( 0.000000000000000000, -0.000000000000000000, 1.000000000000000000 ) ) ;
#160 = PRODUCT ( '1.31.FM4', '1.31.FM4', '', ( #183 ) ) ;
#161 = DIRECTION ( 'NONE',  ( -1.000000000000000000, 0.000000000000000000, 0.000000000000000000 ) ) ;
#162 = EDGE_CURVE ( 'NONE', #280, #89, #139, .T. ) ;
#163 = DIRECTION ( 'NONE',  ( 0.000000000000000000, 0.000000000000000000, 1.000000000000000000 ) ) ;
#164 = VECTOR ( 'NONE', #61, 1000.000000000000000 ) ;
#165 = EDGE_LOOP ( 'NONE', ( #297, #83, #268, #262 ) ) ;
#166 = LINE ( 'NONE', #56, #287 ) ;
#167 = DIRECTION ( 'NONE',  ( 0.000000000000000000, 0.000000000000000000, 1.000000000000000000 ) ) ;
#168 = PRODUCT_DEFINITION_FORMATION_WITH_SPECIFIED_SOURCE ( 'ANY', '', #160, .NOT_KNOWN. ) ;
#169 = ORIENTED_EDGE ( 'NONE', *, *, #184, .F. ) ;
#170 = FILL_AREA_STYLE ('',( #360 ) ) ;
#171 = EDGE_LOOP ( 'NONE', ( #256, #66, #208, #188 ) ) ;
#172 = AXIS2_PLACEMENT_3D ( 'NONE', #28, #135, #261 ) ;
#173 = LINE ( 'NONE', #4, #155 ) ;
#174 = EDGE_LOOP ( 'NONE', ( #259, #322 ) ) ;
#175 = ORIENTED_EDGE ( 'NONE', *, *, #162, .F. ) ;
#176 = DIRECTION ( 'NONE',  ( 0.000000000000000000, 1.000000000000000000, 0.000000000000000000 ) ) ;
#177 =( NAMED_UNIT ( * ) PLANE_ANGLE_UNIT ( ) SI_UNIT ( $, .RADIAN. ) );
#178 = DIRECTION ( 'NONE',  ( 0.000000000000000000, -0.000000000000000000, 1.000000000000000000 ) ) ;
#179 = PRODUCT_DEFINITION ( 'UNKNOWN', '', #168, #141 ) ;
#180 = FACE_OUTER_BOUND ( 'NONE', #181, .T. ) ;
#181 = EDGE_LOOP ( 'NONE', ( #307, #341, #285, #204 ) ) ;
#182 = AXIS2_PLACEMENT_3D ( 'NONE', #224, #53, #49 ) ;
#183 = PRODUCT_CONTEXT ( 'NONE', #64, 'mechanical' ) ;
#184 = EDGE_CURVE ( 'NONE', #329, #115, #191, .T. ) ;
#185 = DIRECTION ( 'NONE',  ( 0.000000000000000000, 0.000000000000000000, -1.000000000000000000 ) ) ;
#186 = AXIS2_PLACEMENT_3D ( 'NONE', #356, #52, #198 ) ;
#187 = DIRECTION ( 'NONE',  ( 8.659560562354931626E-17, 0.7071067811865475727, -0.7071067811865474617 ) ) ;
#188 = ORIENTED_EDGE ( 'NONE', *, *, #221, .T. ) ;
#189 = CARTESIAN_POINT ( 'NONE',  ( 0.000000000000000000, -3.000000000000000000, 0.000000000000000000 ) ) ;
#190 = ADVANCED_BREP_SHAPE_REPRESENTATION ( '1.31.FM4', ( #149, #96 ), #130 ) ;
#191 = CIRCLE ( 'NONE', #30, 2.000000000000000000 ) ;
#192 = DIRECTION ( 'NONE',  ( -0.000000000000000000, -1.000000000000000000, -0.000000000000000000 ) ) ;
#193 = CONICAL_SURFACE ( 'NONE', #50, 1.620999999999999996, 0.7853981633974482790 ) ;
#194 = PRODUCT_RELATED_PRODUCT_CATEGORY ( 'part', '', ( #160 ) ) ;
#195 = CARTESIAN_POINT ( 'NONE',  ( 7.000000000000000000, 0.000000000000000000, -6.000000000000000000 ) ) ;
#196 = DIRECTION ( 'NONE',  ( 0.000000000000000000, 1.000000000000000000, 0.000000000000000000 ) ) ;
#197 = EDGE_CURVE ( 'NONE', #206, #33, #321, .T. ) ;
#198 = DIRECTION ( 'NONE',  ( 0.000000000000000000, 0.000000000000000000, 1.000000000000000000 ) ) ;
#199 = ORIENTED_EDGE ( 'NONE', *, *, #340, .T. ) ;
#200 = DIRECTION ( 'NONE',  ( 0.000000000000000000, 0.000000000000000000, 1.000000000000000000 ) ) ;
#201 = ORIENTED_EDGE ( 'NONE', *, *, #150, .F. ) ;
#202 = DIRECTION ( 'NONE',  ( 0.000000000000000000, 1.000000000000000000, 0.000000000000000000 ) ) ;
#203 = APPLICATION_CONTEXT ( 'automotive_design' ) ;
#204 = ORIENTED_EDGE ( 'NONE', *, *, #19, .T. ) ;
#205 = CARTESIAN_POINT ( 'NONE',  ( 7.000000000000000000, 0.000000000000000000, 6.000000000000000000 ) ) ;
#206 = VERTEX_POINT ( 'NONE', #255 ) ;
#207 = DIRECTION ( 'NONE',  ( 0.000000000000000000, 0.000000000000000000, 1.000000000000000000 ) ) ;
#208 = ORIENTED_EDGE ( 'NONE', *, *, #138, .F. ) ;
#209 = EDGE_CURVE ( 'NONE', #236, #280, #173, .T. ) ;
#210 = FACE_OUTER_BOUND ( 'NONE', #140, .T. ) ;
#211 = CARTESIAN_POINT ( 'NONE',  ( 0.000000000000000000, -3.000000000000000000, 0.000000000000000000 ) ) ;
#212 = CIRCLE ( 'NONE', #142, 1.620999999999999996 ) ;
#213 = EDGE_CURVE ( 'NONE', #283, #236, #227, .T. ) ;
#214 = CARTESIAN_POINT ( 'NONE',  ( 0.000000000000000000, -3.000000000000000000, 0.000000000000000000 ) ) ;
#215 = CARTESIAN_POINT ( 'NONE',  ( -7.000000000000000000, -3.000000000000000000, 6.000000000000000000 ) ) ;
#216 = EDGE_LOOP ( 'NONE', ( #55, #337, #3, #228 ) ) ;
#217 = AXIS2_PLACEMENT_3D ( 'NONE', #276, #131, #355 ) ;
#218 = LINE ( 'NONE', #330, #298 ) ;
#219 = PLANE ( 'NONE',  #101 ) ;
#220 = CIRCLE ( 'NONE', #172, 2.000000000000000000 ) ;
#221 = EDGE_CURVE ( 'NONE', #99, #280, #231, .T. ) ;
#222 = FACE_BOUND ( 'NONE', #174, .T. ) ;
#223 = CARTESIAN_POINT ( 'NONE',  ( 7.000000000000000000, -3.000000000000000000, -6.000000000000000000 ) ) ;
#224 = CARTESIAN_POINT ( 'NONE',  ( 7.000000000000000000, 0.000000000000000000, -6.000000000000000000 ) ) ;
#225 =( NAMED_UNIT ( * ) PLANE_ANGLE_UNIT ( ) SI_UNIT ( $, .RADIAN. ) );
#226 = VERTEX_POINT ( 'NONE', #343 ) ;
#227 = LINE ( 'NONE', #338, #91 ) ;
#228 = ORIENTED_EDGE ( 'NONE', *, *, #41, .T. ) ;
#229 = CARTESIAN_POINT ( 'NONE',  ( 0.000000000000000000, -0.3790000000000000036, 0.000000000000000000 ) ) ;
#230 = VERTEX_POINT ( 'NONE', #288 ) ;
#231 = LINE ( 'NONE', #318, #359 ) ;
#232 = VERTEX_POINT ( 'NONE', #143 ) ;
#233 = STYLED_ITEM ( 'NONE', ( #80 ), #149 ) ;
#234 = DIRECTION ( 'NONE',  ( 0.000000000000000000, 0.000000000000000000, 1.000000000000000000 ) ) ;
#235 = APPLICATION_PROTOCOL_DEFINITION ( 'draft international standard', 'automotive_design', 1998, #203 ) ;
#236 = VERTEX_POINT ( 'NONE', #215 ) ;
#237 = DIRECTION ( 'NONE',  ( 0.000000000000000000, 1.000000000000000000, 0.000000000000000000 ) ) ;
#238 = AXIS2_PLACEMENT_3D ( 'NONE', #145, #336, #263 ) ;
#239 = DIRECTION ( 'NONE',  ( 0.000000000000000000, 0.000000000000000000, -1.000000000000000000 ) ) ;
#240 = FACE_OUTER_BOUND ( 'NONE', #133, .T. ) ;
#241 = ORIENTED_EDGE ( 'NONE', *, *, #51, .T. ) ;
#242 = DIRECTION ( 'NONE',  ( -0.000000000000000000, -1.000000000000000000, -0.000000000000000000 ) ) ;
#243 = CARTESIAN_POINT ( 'NONE',  ( 0.000000000000000000, -0.3790000000000000036, 0.000000000000000000 ) ) ;
#244 = ADVANCED_FACE ( 'CONE_1', ( #265 ), #272, .F. ) ;
#245 = CARTESIAN_POINT ( 'NONE',  ( 1.985152461417859467E-16, -3.000000000000000000, -1.620999999999999996 ) ) ;
#246 = ADVANCED_FACE ( 'PLANAR_3', ( #210 ), #327, .F. ) ;
#247 = AXIS2_PLACEMENT_3D ( 'NONE', #334, #21, #163 ) ;
#248 = AXIS2_PLACEMENT_3D ( 'NONE', #211, #176, #269 ) ;
#249 = ORIENTED_EDGE ( 'NONE', *, *, #41, .F. ) ;
#250 = EDGE_CURVE ( 'NONE', #33, #206, #136, .T. ) ;
#251 = CARTESIAN_POINT ( 'NONE',  ( 7.000000000000000000, -3.000000000000000000, -6.000000000000000000 ) ) ;
#252 = EDGE_LOOP ( 'NONE', ( #293, #5, #175, #358 ) ) ;
#253 = ORIENTED_EDGE ( 'NONE', *, *, #213, .T. ) ;
#254 = AXIS2_PLACEMENT_3D ( 'NONE', #311, #202, #167 ) ;
#255 = CARTESIAN_POINT ( 'NONE',  ( 2.217223029856282818E-16, -0.3790000000000000036, -1.620999999999999996 ) ) ;
#256 = ORIENTED_EDGE ( 'NONE', *, *, #162, .T. ) ;
#257 = CLOSED_SHELL ( 'NONE', ( #244, #87, #290, #299, #48, #286, #246, #152, #23, #126, #9, #326 ) ) ;
#258 = CARTESIAN_POINT ( 'NONE',  ( 7.000000000000000000, -3.000000000000000000, 6.000000000000000000 ) ) ;
#259 = ORIENTED_EDGE ( 'NONE', *, *, #349, .T. ) ;
#260 = EDGE_CURVE ( 'NONE', #60, #89, #154, .T. ) ;
#261 = DIRECTION ( 'NONE',  ( 0.000000000000000000, 0.000000000000000000, 1.000000000000000000 ) ) ;
#262 = ORIENTED_EDGE ( 'NONE', *, *, #260, .T. ) ;
#263 = DIRECTION ( 'NONE',  ( 0.000000000000000000, 0.000000000000000000, 1.000000000000000000 ) ) ;
#264 = EDGE_CURVE ( 'NONE', #230, #236, #324, .T. ) ;
#265 = FACE_OUTER_BOUND ( 'NONE', #34, .T. ) ;
#266 = APPLICATION_PROTOCOL_DEFINITION ( 'draft international standard', 'automotive_design', 1998, #64 ) ;
#267 = CARTESIAN_POINT ( 'NONE',  ( -7.000000000000000000, 0.000000000000000000, 6.000000000000000000 ) ) ;
#268 = ORIENTED_EDGE ( 'NONE', *, *, #19, .F. ) ;
#269 = DIRECTION ( 'NONE',  ( 0.000000000000000000, 0.000000000000000000, 1.000000000000000000 ) ) ;
#270 = DIRECTION ( 'NONE',  ( -0.000000000000000000, -1.000000000000000000, -0.000000000000000000 ) ) ;
#271 = DIRECTION ( 'NONE',  ( 0.000000000000000000, 0.000000000000000000, 1.000000000000000000 ) ) ;
#272 = CONICAL_SURFACE ( 'NONE', #47, 2.000000000000000000, 0.7853981633974482790 ) ;
#273 = DIRECTION ( 'NONE',  ( 0.000000000000000000, 0.000000000000000000, 1.000000000000000000 ) ) ;
#274 = EDGE_CURVE ( 'NONE', #109, #226, #212, .T. ) ;
#275 = FACE_OUTER_BOUND ( 'NONE', #132, .T. ) ;
#276 = CARTESIAN_POINT ( 'NONE',  ( 0.000000000000000000, -3.000000000000000000, 0.000000000000000000 ) ) ;
#277 = CONICAL_SURFACE ( 'NONE', #117, 1.620999999999999996, 0.7853981633974482790 ) ;
#278 = CYLINDRICAL_SURFACE ( 'NONE', #217, 1.620999999999999996 ) ;
#279 = UNCERTAINTY_MEASURE_WITH_UNIT (LENGTH_MEASURE( 1.000000000000000082E-05 ), #65, 'distance_accuracy_value', 'NONE');
#280 = VERTEX_POINT ( 'NONE', #46 ) ;
#281 = LINE ( 'NONE', #76, #54 ) ;
#282 = FACE_OUTER_BOUND ( 'NONE', #216, .T. ) ;
#283 = VERTEX_POINT ( 'NONE', #94 ) ;
#284 = PRESENTATION_LAYER_ASSIGNMENT (  '', '', ( #233 ) ) ;
#285 = ORIENTED_EDGE ( 'NONE', *, *, #138, .T. ) ;
#286 = ADVANCED_FACE ( 'PLANAR_2', ( #98 ), #123, .F. ) ;
#287 = VECTOR ( 'NONE', #308, 1000.000000000000000 ) ;
#288 = CARTESIAN_POINT ( 'NONE',  ( -7.000000000000000000, 0.000000000000000000, 6.000000000000000000 ) ) ;
#289 = ORIENTED_EDGE ( 'NONE', *, *, #63, .F. ) ;
#290 = ADVANCED_FACE ( 'CONE_0', ( #240 ), #193, .F. ) ;
#291 = VECTOR ( 'NONE', #157, 1000.000000000000000 ) ;
#292 = SURFACE_STYLE_FILL_AREA ( #170 ) ;
#293 = ORIENTED_EDGE ( 'NONE', *, *, #213, .F. ) ;
#294 =( LENGTH_UNIT ( ) NAMED_UNIT ( * ) SI_UNIT ( .MILLI., .METRE. ) );
#295 = CARTESIAN_POINT ( 'NONE',  ( 2.449293598294706414E-16, -3.000000000000000000, 2.000000000000000000 ) ) ;
#296 = DIRECTION ( 'NONE',  ( 0.000000000000000000, 0.000000000000000000, -1.000000000000000000 ) ) ;
#297 = ORIENTED_EDGE ( 'NONE', *, *, #67, .T. ) ;
#298 = VECTOR ( 'NONE', #237, 1000.000000000000000 ) ;
#299 = ADVANCED_FACE ( 'PLANAR_0', ( #180, #348 ), #37, .T. ) ;
#300 = LINE ( 'NONE', #44, #2 ) ;
#301 = FACE_OUTER_BOUND ( 'NONE', #315, .T. ) ;
#302 = EDGE_LOOP ( 'NONE', ( #253, #11, #144, #43 ) ) ;
#303 = DIRECTION ( 'NONE',  ( 0.000000000000000000, 1.000000000000000000, 0.000000000000000000 ) ) ;
#304 = AXIS2_PLACEMENT_3D ( 'NONE', #267, #239, #153 ) ;
#305 = CARTESIAN_POINT ( 'NONE',  ( 0.000000000000000000, -3.000000000000000000, -2.000000000000000000 ) ) ;
#306 = VECTOR ( 'NONE', #73, 1000.000000000000000 ) ;
#307 = ORIENTED_EDGE ( 'NONE', *, *, #13, .T. ) ;
#308 = DIRECTION ( 'NONE',  ( 0.000000000000000000, 0.000000000000000000, 1.000000000000000000 ) ) ;
#309 = EDGE_CURVE ( 'NONE', #33, #232, #14, .T. ) ;
#310 = CARTESIAN_POINT ( 'NONE',  ( 1.985152461417859467E-16, -2.620999999999999996, -1.620999999999999996 ) ) ;
#311 = CARTESIAN_POINT ( 'NONE',  ( 0.000000000000000000, -0.3790000000000000036, 0.000000000000000000 ) ) ;
#312 = ORIENTED_EDGE ( 'NONE', *, *, #209, .T. ) ;
#313 = SURFACE_SIDE_STYLE ('',( #292 ) ) ;
#314 = CIRCLE ( 'NONE', #247, 2.000000000000000000 ) ;
#315 = EDGE_LOOP ( 'NONE', ( #62, #86, #241, #169 ) ) ;
#316 = EDGE_CURVE ( 'NONE', #206, #320, #300, .T. ) ;
#317 = CONICAL_SURFACE ( 'NONE', #85, 2.000000000000000000, 0.7853981633974482790 ) ;
#318 = CARTESIAN_POINT ( 'NONE',  ( 7.000000000000000000, 0.000000000000000000, 6.000000000000000000 ) ) ;
#319 = ORIENTED_EDGE ( 'NONE', *, *, #274, .T. ) ;
#320 = VERTEX_POINT ( 'NONE', #328 ) ;
#321 = CIRCLE ( 'NONE', #254, 1.620999999999999996 ) ;
#322 = ORIENTED_EDGE ( 'NONE', *, *, #184, .T. ) ;
#323 = AXIS2_PLACEMENT_3D ( 'NONE', #156, #346, #185 ) ;
#324 = LINE ( 'NONE', #71, #306 ) ;
#325 = CARTESIAN_POINT ( 'NONE',  ( -7.000000000000000000, 0.000000000000000000, 6.000000000000000000 ) ) ;
#326 = ADVANCED_FACE ( 'CONE_1', ( #301 ), #317, .F. ) ;
#327 = PLANE ( 'NONE',  #304 ) ;
#328 = CARTESIAN_POINT ( 'NONE',  ( 2.449293598294706414E-16, 0.000000000000000000, -2.000000000000000000 ) ) ;
#329 = VERTEX_POINT ( 'NONE', #295 ) ;
#330 = CARTESIAN_POINT ( 'NONE',  ( 0.000000000000000000, -3.000000000000000000, 1.620999999999999996 ) ) ;
#331 = FACE_OUTER_BOUND ( 'NONE', #111, .T. ) ;
#332 = VECTOR ( 'NONE', #129, 1000.000000000000000 ) ;
#333 = ORIENTED_EDGE ( 'NONE', *, *, #264, .T. ) ;
#334 = CARTESIAN_POINT ( 'NONE',  ( 0.000000000000000000, 0.000000000000000000, 0.000000000000000000 ) ) ;
#335 = CARTESIAN_POINT ( 'NONE',  ( -7.000000000000000000, -3.000000000000000000, 6.000000000000000000 ) ) ;
#336 = DIRECTION ( 'NONE',  ( -1.000000000000000000, 0.000000000000000000, 0.000000000000000000 ) ) ;
#337 = ORIENTED_EDGE ( 'NONE', *, *, #250, .F. ) ;
#338 = CARTESIAN_POINT ( 'NONE',  ( -7.000000000000000000, -3.000000000000000000, -6.000000000000000000 ) ) ;
#339 = ORIENTED_EDGE ( 'NONE', *, *, #354, .F. ) ;
#340 = EDGE_CURVE ( 'NONE', #226, #329, #125, .T. ) ;
#341 = ORIENTED_EDGE ( 'NONE', *, *, #354, .T. ) ;
#342 = VECTOR ( 'NONE', #95, 1000.000000000000000 ) ;
#343 = CARTESIAN_POINT ( 'NONE',  ( 0.000000000000000000, -2.620999999999999996, 1.620999999999999996 ) ) ;
#344 = ORIENTED_EDGE ( 'NONE', *, *, #20, .F. ) ;
#345 = VECTOR ( 'NONE', #1, 1000.000000000000000 ) ;
#346 = DIRECTION ( 'NONE',  ( 1.000000000000000000, 0.000000000000000000, 0.000000000000000000 ) ) ;
#347 = EDGE_CURVE ( 'NONE', #226, #33, #218, .T. ) ;
#348 = FACE_BOUND ( 'NONE', #32, .T. ) ;
#349 = EDGE_CURVE ( 'NONE', #115, #329, #148, .T. ) ;
#350 = CARTESIAN_POINT ( 'NONE',  ( 2.449293598294706414E-16, -3.000000000000000000, 2.000000000000000000 ) ) ;
#351 = CARTESIAN_POINT ( 'NONE',  ( 0.000000000000000000, -2.620999999999999996, 0.000000000000000000 ) ) ;
#352 = DIRECTION ( 'NONE',  ( 0.000000000000000000, 1.000000000000000000, 0.000000000000000000 ) ) ;
#353 = CARTESIAN_POINT ( 'NONE',  ( 0.000000000000000000, -0.3790000000000000036, 1.620999999999999996 ) ) ;
#354 = EDGE_CURVE ( 'NONE', #230, #99, #119, .T. ) ;
#355 = DIRECTION ( 'NONE',  ( 0.000000000000000000, 0.000000000000000000, 1.000000000000000000 ) ) ;
#356 = CARTESIAN_POINT ( 'NONE',  ( 0.000000000000000000, -2.620999999999999996, 0.000000000000000000 ) ) ;
#357 = UNCERTAINTY_MEASURE_WITH_UNIT (LENGTH_MEASURE( 1.000000000000000082E-05 ), #294, 'distance_accuracy_value', 'NONE');
#358 = ORIENTED_EDGE ( 'NONE', *, *, #209, .F. ) ;
#359 = VECTOR ( 'NONE', #88, 1000.000000000000000 ) ;
#360 = FILL_AREA_STYLE_COLOUR ( '', #24 ) ;
#361 = ORIENTED_EDGE ( 'NONE', *, *, #316, .T. ) ;
ENDSEC;
END-ISO-10303-21;
