ISO-10303-21;
HEADER;
FILE_DESCRIPTION (( 'STEP AP214' ),
    '1' );
FILE_NAME ('1.31.FM3.STEP',
    '2024-10-09T15:44:22',
    ( '' ),
    ( '' ),
    'SwSTEP 2.0',
    'SolidWorks 2024',
    '' );
FILE_SCHEMA (( 'AUTOMOTIVE_DESIGN' ));
ENDSEC;

DATA;
#1 = ADVANCED_FACE ( 'CONE_0', ( #229 ), #251, .F. ) ;
#2 = AXIS2_PLACEMENT_3D ( 'NONE', #339, #56, #278 ) ;
#3 = AXIS2_PLACEMENT_3D ( 'NONE', #130, #233, #352 ) ;
#4 = PRODUCT_CONTEXT ( 'NONE', #30, 'mechanical' ) ;
#5 = CARTESIAN_POINT ( 'NONE',  ( 1.836970198721029934E-16, -3.000000000000000000, 1.500000000000000000 ) ) ;
#6 = FACE_OUTER_BOUND ( 'NONE', #124, .T. ) ;
#7 = AXIS2_PLACEMENT_3D ( 'NONE', #103, #55, #297 ) ;
#8 = DIRECTION ( 'NONE',  ( 0.000000000000000000, 1.000000000000000000, 0.000000000000000000 ) ) ;
#9 = ORIENTED_EDGE ( 'NONE', *, *, #194, .F. ) ;
#10 = CARTESIAN_POINT ( 'NONE',  ( -7.000000000000000000, -3.000000000000000000, 6.000000000000000000 ) ) ;
#11 = EDGE_LOOP ( 'NONE', ( #100, #37, #176, #187 ) ) ;
#12 = ORIENTED_EDGE ( 'NONE', *, *, #255, .T. ) ;
#13 = CARTESIAN_POINT ( 'NONE',  ( 0.000000000000000000, -3.000000000000000000, 0.000000000000000000 ) ) ;
#14 = CARTESIAN_POINT ( 'NONE',  ( 1.505703239551670824E-16, -3.000000000000000000, -1.229500000000000037 ) ) ;
#15 = VECTOR ( 'NONE', #267, 999.9999999999998863 ) ;
#16 = VERTEX_POINT ( 'NONE', #262 ) ;
#17 = ADVANCED_BREP_SHAPE_REPRESENTATION ( '1.31.FM3', ( #311, #48 ), #332 ) ;
#18 = CARTESIAN_POINT ( 'NONE',  ( 0.000000000000000000, -2.729499999999999815, 0.000000000000000000 ) ) ;
#19 = DIRECTION ( 'NONE',  ( 0.000000000000000000, 1.000000000000000000, 0.000000000000000000 ) ) ;
#20 = EDGE_LOOP ( 'NONE', ( #99, #174, #207, #73 ) ) ;
#21 = CARTESIAN_POINT ( 'NONE',  ( 1.671336719136350256E-16, -0.2705000000000003513, -1.229500000000000037 ) ) ;
#22 = CARTESIAN_POINT ( 'NONE',  ( 7.000000000000000000, 0.000000000000000000, 6.000000000000000000 ) ) ;
#23 = DIRECTION ( 'NONE',  ( 0.000000000000000000, 0.000000000000000000, -1.000000000000000000 ) ) ;
#24 = CARTESIAN_POINT ( 'NONE',  ( -7.000000000000000000, 0.000000000000000000, 6.000000000000000000 ) ) ;
#25 = FACE_OUTER_BOUND ( 'NONE', #72, .T. ) ;
#26 = DIRECTION ( 'NONE',  ( 0.000000000000000000, 0.000000000000000000, 1.000000000000000000 ) ) ;
#27 = EDGE_CURVE ( 'NONE', #286, #259, #231, .T. ) ;
#28 = LINE ( 'NONE', #210, #15 ) ;
#29 = EDGE_CURVE ( 'NONE', #294, #232, #158, .T. ) ;
#30 = APPLICATION_CONTEXT ( 'automotive_design' ) ;
#31 = COLOUR_RGB ( '',0.7921568627450980005, 0.8196078431372548767, 0.9333333333333333481 ) ;
#32 = CARTESIAN_POINT ( 'NONE',  ( -7.000000000000000000, 0.000000000000000000, -6.000000000000000000 ) ) ;
#33 =( NAMED_UNIT ( * ) SI_UNIT ( $, .STERADIAN. ) SOLID_ANGLE_UNIT ( ) );
#34 = EDGE_LOOP ( 'NONE', ( #129, #12 ) ) ;
#35 = FACE_BOUND ( 'NONE', #34, .T. ) ;
#36 = VERTEX_POINT ( 'NONE', #290 ) ;
#37 = ORIENTED_EDGE ( 'NONE', *, *, #225, .T. ) ;
#38 = EDGE_CURVE ( 'NONE', #294, #101, #287, .T. ) ;
#39 = EDGE_LOOP ( 'NONE', ( #321, #315, #172, #47 ) ) ;
#40 = VERTEX_POINT ( 'NONE', #98 ) ;
#41 = CONICAL_SURFACE ( 'NONE', #241, 1.500000000000000000, 0.7853981633974479459 ) ;
#42 = FACE_OUTER_BOUND ( 'NONE', #76, .T. ) ;
#43 = VERTEX_POINT ( 'NONE', #320 ) ;
#44 = ORIENTED_EDGE ( 'NONE', *, *, #298, .T. ) ;
#45 = ORIENTED_EDGE ( 'NONE', *, *, #121, .T. ) ;
#46 = LINE ( 'NONE', #240, #119 ) ;
#47 = ORIENTED_EDGE ( 'NONE', *, *, #351, .F. ) ;
#48 = AXIS2_PLACEMENT_3D ( 'NONE', #88, #169, #143 ) ;
#49 = DIRECTION ( 'NONE',  ( 0.000000000000000000, 0.000000000000000000, 1.000000000000000000 ) ) ;
#50 = AXIS2_PLACEMENT_3D ( 'NONE', #264, #19, #257 ) ;
#51 = DIRECTION ( 'NONE',  ( 0.000000000000000000, -0.000000000000000000, 1.000000000000000000 ) ) ;
#52 = EDGE_CURVE ( 'NONE', #259, #131, #68, .T. ) ;
#53 = DIRECTION ( 'NONE',  ( 0.000000000000000000, -0.7071067811865479058, -0.7071067811865472397 ) ) ;
#54 = ADVANCED_FACE ( 'PLANAR_2', ( #42 ), #157, .F. ) ;
#55 = DIRECTION ( 'NONE',  ( 0.000000000000000000, 1.000000000000000000, 0.000000000000000000 ) ) ;
#56 = DIRECTION ( 'NONE',  ( 0.000000000000000000, 1.000000000000000000, 0.000000000000000000 ) ) ;
#57 = EDGE_CURVE ( 'NONE', #131, #346, #208, .T. ) ;
#58 = AXIS2_PLACEMENT_3D ( 'NONE', #274, #23, #272 ) ;
#59 = AXIS2_PLACEMENT_3D ( 'NONE', #356, #302, #357 ) ;
#60 = PLANE ( 'NONE',  #316 ) ;
#61 = ORIENTED_EDGE ( 'NONE', *, *, #121, .F. ) ;
#62 = CIRCLE ( 'NONE', #2, 1.500000000000000000 ) ;
#63 = ORIENTED_EDGE ( 'NONE', *, *, #225, .F. ) ;
#64 = ORIENTED_EDGE ( 'NONE', *, *, #29, .T. ) ;
#65 = VERTEX_POINT ( 'NONE', #5 ) ;
#66 = DIRECTION ( 'NONE',  ( -0.000000000000000000, -1.000000000000000000, -0.000000000000000000 ) ) ;
#67 = ORIENTED_EDGE ( 'NONE', *, *, #120, .F. ) ;
#68 = LINE ( 'NONE', #179, #134 ) ;
#69 = EDGE_LOOP ( 'NONE', ( #63, #180, #254, #71 ) ) ;
#70 = CARTESIAN_POINT ( 'NONE',  ( 1.836970198721029934E-16, 0.000000000000000000, -1.500000000000000000 ) ) ;
#71 = ORIENTED_EDGE ( 'NONE', *, *, #255, .F. ) ;
#72 = EDGE_LOOP ( 'NONE', ( #223, #299, #265, #236 ) ) ;
#73 = ORIENTED_EDGE ( 'NONE', *, *, #27, .T. ) ;
#74 = DIRECTION ( 'NONE',  ( 1.000000000000000000, 0.000000000000000000, -0.000000000000000000 ) ) ;
#75 = PRODUCT_DEFINITION_SHAPE ( 'NONE', 'NONE',  #91 ) ;
#76 = EDGE_LOOP ( 'NONE', ( #45, #345, #154, #295 ) ) ;
#77 = PLANE ( 'NONE',  #171 ) ;
#78 = CIRCLE ( 'NONE', #59, 1.229500000000000037 ) ;
#79 = PRODUCT_DEFINITION_FORMATION_WITH_SPECIFIED_SOURCE ( 'ANY', '', #136, .NOT_KNOWN. ) ;
#80 = DIRECTION ( 'NONE',  ( 1.000000000000000000, 0.000000000000000000, 0.000000000000000000 ) ) ;
#81 = LINE ( 'NONE', #238, #153 ) ;
#82 = ADVANCED_FACE ( 'PLANAR_3', ( #86 ), #308, .F. ) ;
#83 = LINE ( 'NONE', #276, #181 ) ;
#84 = CYLINDRICAL_SURFACE ( 'NONE', #115, 1.229500000000000037 ) ;
#85 = DIRECTION ( 'NONE',  ( 0.000000000000000000, 0.000000000000000000, 1.000000000000000000 ) ) ;
#86 = FACE_OUTER_BOUND ( 'NONE', #349, .T. ) ;
#87 = VECTOR ( 'NONE', #97, 1000.000000000000000 ) ;
#88 = CARTESIAN_POINT ( 'NONE',  ( 0.000000000000000000, 0.000000000000000000, 0.000000000000000000 ) ) ;
#89 = LINE ( 'NONE', #32, #281 ) ;
#90 = AXIS2_PLACEMENT_3D ( 'NONE', #112, #186, #216 ) ;
#91 = PRODUCT_DEFINITION ( 'UNKNOWN', '', #79, #142 ) ;
#92 = PRESENTATION_STYLE_ASSIGNMENT (( #260 ) ) ;
#93 = EDGE_CURVE ( 'NONE', #346, #183, #188, .T. ) ;
#94 = EDGE_LOOP ( 'NONE', ( #234, #288, #122, #149 ) ) ;
#95 = DIRECTION ( 'NONE',  ( 0.000000000000000000, 1.000000000000000000, 0.000000000000000000 ) ) ;
#96 = EDGE_LOOP ( 'NONE', ( #283, #64, #263, #226 ) ) ;
#97 = DIRECTION ( 'NONE',  ( 0.000000000000000000, 1.000000000000000000, 0.000000000000000000 ) ) ;
#98 = CARTESIAN_POINT ( 'NONE',  ( -7.000000000000000000, -3.000000000000000000, -6.000000000000000000 ) ) ;
#99 = ORIENTED_EDGE ( 'NONE', *, *, #52, .T. ) ;
#100 = ORIENTED_EDGE ( 'NONE', *, *, #38, .T. ) ;
#101 = VERTEX_POINT ( 'NONE', #190 ) ;
#102 = DIRECTION ( 'NONE',  ( 0.000000000000000000, 1.000000000000000000, 0.000000000000000000 ) ) ;
#103 = CARTESIAN_POINT ( 'NONE',  ( 0.000000000000000000, -0.2705000000000003513, 0.000000000000000000 ) ) ;
#104 = VECTOR ( 'NONE', #335, 1000.000000000000000 ) ;
#105 = CARTESIAN_POINT ( 'NONE',  ( 7.000000000000000000, 0.000000000000000000, -6.000000000000000000 ) ) ;
#106 = CARTESIAN_POINT ( 'NONE',  ( 0.000000000000000000, -3.000000000000000000, 0.000000000000000000 ) ) ;
#107 = EDGE_CURVE ( 'NONE', #294, #43, #300, .T. ) ;
#108 = FACE_BOUND ( 'NONE', #324, .T. ) ;
#109 = VECTOR ( 'NONE', #237, 1000.000000000000000 ) ;
#110 = ADVANCED_FACE ( 'CYL_0', ( #247 ), #162, .F. ) ;
#111 = DIRECTION ( 'NONE',  ( 0.000000000000000000, 0.000000000000000000, 1.000000000000000000 ) ) ;
#112 = CARTESIAN_POINT ( 'NONE',  ( 0.000000000000000000, -0.2705000000000003513, 0.000000000000000000 ) ) ;
#113 = LINE ( 'NONE', #252, #204 ) ;
#114 = APPLICATION_PROTOCOL_DEFINITION ( 'draft international standard', 'automotive_design', 1998, #144 ) ;
#115 = AXIS2_PLACEMENT_3D ( 'NONE', #361, #336, #85 ) ;
#116 = CLOSED_SHELL ( 'NONE', ( #284, #340, #242, #184, #312, #54, #82, #160, #118, #1, #110, #170 ) ) ;
#117 =( LENGTH_UNIT ( ) NAMED_UNIT ( * ) SI_UNIT ( .MILLI., .METRE. ) );
#118 = ADVANCED_FACE ( 'PLANAR_5', ( #25 ), #191, .F. ) ;
#119 = VECTOR ( 'NONE', #80, 1000.000000000000000 ) ;
#120 = EDGE_CURVE ( 'NONE', #131, #159, #46, .T. ) ;
#121 = EDGE_CURVE ( 'NONE', #40, #346, #329, .T. ) ;
#122 = ORIENTED_EDGE ( 'NONE', *, *, #246, .F. ) ;
#123 = CARTESIAN_POINT ( 'NONE',  ( 7.000000000000000000, -3.000000000000000000, -6.000000000000000000 ) ) ;
#124 = EDGE_LOOP ( 'NONE', ( #61, #258, #9, #266 ) ) ;
#125 = ORIENTED_EDGE ( 'NONE', *, *, #192, .F. ) ;
#126 = DIRECTION ( 'NONE',  ( 0.000000000000000000, 0.000000000000000000, 1.000000000000000000 ) ) ;
#127 = AXIS2_PLACEMENT_3D ( 'NONE', #201, #8, #347 ) ;
#128 = DIRECTION ( 'NONE',  ( 0.000000000000000000, 1.000000000000000000, 0.000000000000000000 ) ) ;
#129 = ORIENTED_EDGE ( 'NONE', *, *, #273, .T. ) ;
#130 = CARTESIAN_POINT ( 'NONE',  ( -7.000000000000000000, 0.000000000000000000, -6.000000000000000000 ) ) ;
#131 = VERTEX_POINT ( 'NONE', #211 ) ;
#132 = CARTESIAN_POINT ( 'NONE',  ( 0.000000000000000000, -0.2705000000000003513, 0.000000000000000000 ) ) ;
#133 = CARTESIAN_POINT ( 'NONE',  ( 7.000000000000000000, 0.000000000000000000, 6.000000000000000000 ) ) ;
#134 = VECTOR ( 'NONE', #293, 1000.000000000000000 ) ;
#135 = CARTESIAN_POINT ( 'NONE',  ( 7.000000000000000000, 0.000000000000000000, -6.000000000000000000 ) ) ;
#136 = PRODUCT ( '1.31.FM3', '1.31.FM3', '', ( #4 ) ) ;
#137 = FACE_OUTER_BOUND ( 'NONE', #94, .T. ) ;
#138 = VECTOR ( 'NONE', #200, 1000.000000000000000 ) ;
#139 = CARTESIAN_POINT ( 'NONE',  ( 7.000000000000000000, -3.000000000000000000, 6.000000000000000000 ) ) ;
#140 = DIRECTION ( 'NONE',  ( -0.000000000000000000, -1.000000000000000000, -0.000000000000000000 ) ) ;
#141 = CARTESIAN_POINT ( 'NONE',  ( 0.000000000000000000, -3.000000000000000000, -1.500000000000000000 ) ) ;
#142 = PRODUCT_DEFINITION_CONTEXT ( 'detailed design', #144, 'design' ) ;
#143 = DIRECTION ( 'NONE',  ( 1.000000000000000000, 0.000000000000000000, 0.000000000000000000 ) ) ;
#144 = APPLICATION_CONTEXT ( 'automotive_design' ) ;
#145 = CIRCLE ( 'NONE', #301, 1.500000000000000000 ) ;
#146 = FACE_OUTER_BOUND ( 'NONE', #96, .T. ) ;
#147 =( LENGTH_UNIT ( ) NAMED_UNIT ( * ) SI_UNIT ( .MILLI., .METRE. ) );
#148 = EDGE_CURVE ( 'NONE', #36, #232, #167, .T. ) ;
#149 = ORIENTED_EDGE ( 'NONE', *, *, #341, .T. ) ;
#150 = CARTESIAN_POINT ( 'NONE',  ( 0.000000000000000000, -3.000000000000000000, 0.000000000000000000 ) ) ;
#151 = EDGE_LOOP ( 'NONE', ( #314, #203, #209, #319 ) ) ;
#152 = CARTESIAN_POINT ( 'NONE',  ( 0.000000000000000000, 0.000000000000000000, 0.000000000000000000 ) ) ;
#153 = VECTOR ( 'NONE', #331, 1000.000000000000000 ) ;
#154 = ORIENTED_EDGE ( 'NONE', *, *, #52, .F. ) ;
#155 = DIRECTION ( 'NONE',  ( 0.000000000000000000, 1.000000000000000000, 0.000000000000000000 ) ) ;
#156 = VECTOR ( 'NONE', #360, 1000.000000000000000 ) ;
#157 = PLANE ( 'NONE',  #3 ) ;
#158 = LINE ( 'NONE', #14, #87 ) ;
#159 = VERTEX_POINT ( 'NONE', #269 ) ;
#160 = ADVANCED_FACE ( 'PLANAR_4', ( #137 ), #77, .F. ) ;
#161 = LINE ( 'NONE', #22, #109 ) ;
#162 = CYLINDRICAL_SURFACE ( 'NONE', #271, 1.229500000000000037 ) ;
#163 = VECTOR ( 'NONE', #193, 1000.000000000000000 ) ;
#164 = CARTESIAN_POINT ( 'NONE',  ( -7.000000000000000000, -3.000000000000000000, -6.000000000000000000 ) ) ;
#165 = CARTESIAN_POINT ( 'NONE',  ( 0.000000000000000000, -3.000000000000000000, 0.000000000000000000 ) ) ;
#166 = CARTESIAN_POINT ( 'NONE',  ( -7.000000000000000000, -3.000000000000000000, 6.000000000000000000 ) ) ;
#167 = CIRCLE ( 'NONE', #7, 1.229500000000000037 ) ;
#168 = FACE_OUTER_BOUND ( 'NONE', #69, .T. ) ;
#169 = DIRECTION ( 'NONE',  ( 0.000000000000000000, 0.000000000000000000, 1.000000000000000000 ) ) ;
#170 = ADVANCED_FACE ( 'CONE_1', ( #168 ), #249, .F. ) ;
#171 = AXIS2_PLACEMENT_3D ( 'NONE', #133, #243, #111 ) ;
#172 = ORIENTED_EDGE ( 'NONE', *, *, #325, .T. ) ;
#173 = LINE ( 'NONE', #313, #220 ) ;
#174 = ORIENTED_EDGE ( 'NONE', *, *, #120, .T. ) ;
#175 = DIRECTION ( 'NONE',  ( 0.000000000000000000, -0.000000000000000000, 1.000000000000000000 ) ) ;
#176 = ORIENTED_EDGE ( 'NONE', *, *, #273, .F. ) ;
#177 = FILL_AREA_STYLE ('',( #285 ) ) ;
#178 = ORIENTED_EDGE ( 'NONE', *, *, #341, .F. ) ;
#179 = CARTESIAN_POINT ( 'NONE',  ( -7.000000000000000000, 0.000000000000000000, -6.000000000000000000 ) ) ;
#180 = ORIENTED_EDGE ( 'NONE', *, *, #192, .T. ) ;
#181 = VECTOR ( 'NONE', #327, 1000.000000000000000 ) ;
#182 = EDGE_CURVE ( 'NONE', #256, #40, #81, .T. ) ;
#183 = VERTEX_POINT ( 'NONE', #139 ) ;
#184 = ADVANCED_FACE ( 'PLANAR_0', ( #244, #108 ), #303, .T. ) ;
#185 = ORIENTED_EDGE ( 'NONE', *, *, #354, .F. ) ;
#186 = DIRECTION ( 'NONE',  ( 0.000000000000000000, 1.000000000000000000, 0.000000000000000000 ) ) ;
#187 = ORIENTED_EDGE ( 'NONE', *, *, #107, .F. ) ;
#188 = LINE ( 'NONE', #166, #104 ) ;
#189 = DIRECTION ( 'NONE',  ( 0.000000000000000000, 1.000000000000000000, 0.000000000000000000 ) ) ;
#190 = CARTESIAN_POINT ( 'NONE',  ( 0.000000000000000000, -2.729499999999999815, 1.229500000000000037 ) ) ;
#191 = PLANE ( 'NONE',  #219 ) ;
#192 = EDGE_CURVE ( 'NONE', #101, #294, #78, .T. ) ;
#193 = DIRECTION ( 'NONE',  ( 0.000000000000000000, 0.7071067811865481278, 0.7071067811865470176 ) ) ;
#194 = EDGE_CURVE ( 'NONE', #183, #256, #333, .T. ) ;
#195 = AXIS2_PLACEMENT_3D ( 'NONE', #106, #270, #214 ) ;
#196 = DIRECTION ( 'NONE',  ( -0.000000000000000000, -1.000000000000000000, -0.000000000000000000 ) ) ;
#197 = DIRECTION ( 'NONE',  ( -0.000000000000000000, -1.000000000000000000, -0.000000000000000000 ) ) ;
#198 = CARTESIAN_POINT ( 'NONE',  ( -7.000000000000000000, -3.000000000000000000, 6.000000000000000000 ) ) ;
#199 = CIRCLE ( 'NONE', #127, 1.500000000000000000 ) ;
#200 = DIRECTION ( 'NONE',  ( -0.000000000000000000, -1.000000000000000000, -0.000000000000000000 ) ) ;
#201 = CARTESIAN_POINT ( 'NONE',  ( 0.000000000000000000, -3.000000000000000000, 0.000000000000000000 ) ) ;
#202 = SURFACE_SIDE_STYLE ('',( #344 ) ) ;
#203 = ORIENTED_EDGE ( 'NONE', *, *, #148, .F. ) ;
#204 = VECTOR ( 'NONE', #140, 1000.000000000000000 ) ;
#205 = ORIENTED_EDGE ( 'NONE', *, *, #29, .F. ) ;
#206 = CARTESIAN_POINT ( 'NONE',  ( 7.000000000000000000, 0.000000000000000000, -6.000000000000000000 ) ) ;
#207 = ORIENTED_EDGE ( 'NONE', *, *, #246, .T. ) ;
#208 = LINE ( 'NONE', #337, #338 ) ;
#209 = ORIENTED_EDGE ( 'NONE', *, *, #351, .T. ) ;
#210 = CARTESIAN_POINT ( 'NONE',  ( 1.836970198721029934E-16, -3.000000000000000000, 1.500000000000000000 ) ) ;
#211 = CARTESIAN_POINT ( 'NONE',  ( -7.000000000000000000, 0.000000000000000000, 6.000000000000000000 ) ) ;
#212 = AXIS2_PLACEMENT_3D ( 'NONE', #132, #102, #296 ) ;
#213 = CARTESIAN_POINT ( 'NONE',  ( 7.000000000000000000, -3.000000000000000000, 6.000000000000000000 ) ) ;
#214 = DIRECTION ( 'NONE',  ( 0.000000000000000000, 0.000000000000000000, -1.000000000000000000 ) ) ;
#215 =( NAMED_UNIT ( * ) PLANE_ANGLE_UNIT ( ) SI_UNIT ( $, .RADIAN. ) );
#216 = DIRECTION ( 'NONE',  ( 0.000000000000000000, 0.000000000000000000, 1.000000000000000000 ) ) ;
#217 = EDGE_CURVE ( 'NONE', #232, #36, #261, .T. ) ;
#218 = EDGE_CURVE ( 'NONE', #232, #323, #83, .T. ) ;
#219 = AXIS2_PLACEMENT_3D ( 'NONE', #135, #51, #74 ) ;
#220 = VECTOR ( 'NONE', #155, 1000.000000000000000 ) ;
#221 = DIRECTION ( 'NONE',  ( 0.000000000000000000, 0.000000000000000000, -1.000000000000000000 ) ) ;
#222 = FACE_OUTER_BOUND ( 'NONE', #11, .T. ) ;
#223 = ORIENTED_EDGE ( 'NONE', *, *, #182, .T. ) ;
#224 = CARTESIAN_POINT ( 'NONE',  ( -7.000000000000000000, 0.000000000000000000, -6.000000000000000000 ) ) ;
#225 = EDGE_CURVE ( 'NONE', #101, #65, #28, .T. ) ;
#226 = ORIENTED_EDGE ( 'NONE', *, *, #298, .F. ) ;
#227 = CARTESIAN_POINT ( 'NONE',  ( 7.000000000000000000, 0.000000000000000000, -6.000000000000000000 ) ) ;
#228 = STYLED_ITEM ( 'NONE', ( #92 ), #311 ) ;
#229 = FACE_OUTER_BOUND ( 'NONE', #151, .T. ) ;
#230 =( GEOMETRIC_REPRESENTATION_CONTEXT ( 3 ) GLOBAL_UNCERTAINTY_ASSIGNED_CONTEXT ( ( #277 ) ) GLOBAL_UNIT_ASSIGNED_CONTEXT ( ( #117, #310, #33 ) ) REPRESENTATION_CONTEXT ( 'NONE', 'WORKASPACE' ) );
#231 = LINE ( 'NONE', #206, #239 ) ;
#232 = VERTEX_POINT ( 'NONE', #21 ) ;
#233 = DIRECTION ( 'NONE',  ( 1.000000000000000000, 0.000000000000000000, 0.000000000000000000 ) ) ;
#234 = ORIENTED_EDGE ( 'NONE', *, *, #194, .T. ) ;
#235 = DIRECTION ( 'NONE',  ( -1.000000000000000000, 0.000000000000000000, 0.000000000000000000 ) ) ;
#236 = ORIENTED_EDGE ( 'NONE', *, *, #253, .T. ) ;
#237 = DIRECTION ( 'NONE',  ( 0.000000000000000000, 0.000000000000000000, -1.000000000000000000 ) ) ;
#238 = CARTESIAN_POINT ( 'NONE',  ( 7.000000000000000000, -3.000000000000000000, -6.000000000000000000 ) ) ;
#239 = VECTOR ( 'NONE', #235, 1000.000000000000000 ) ;
#240 = CARTESIAN_POINT ( 'NONE',  ( -7.000000000000000000, 0.000000000000000000, 6.000000000000000000 ) ) ;
#241 = AXIS2_PLACEMENT_3D ( 'NONE', #150, #66, #221 ) ;
#242 = ADVANCED_FACE ( 'CONE_0', ( #268 ), #292, .F. ) ;
#243 = DIRECTION ( 'NONE',  ( -1.000000000000000000, 0.000000000000000000, 0.000000000000000000 ) ) ;
#244 = FACE_OUTER_BOUND ( 'NONE', #20, .T. ) ;
#245 = UNCERTAINTY_MEASURE_WITH_UNIT (LENGTH_MEASURE( 1.000000000000000082E-05 ), #147, 'distance_accuracy_value', 'NONE');
#246 = EDGE_CURVE ( 'NONE', #159, #286, #161, .T. ) ;
#247 = FACE_OUTER_BOUND ( 'NONE', #291, .T. ) ;
#248 = SHAPE_DEFINITION_REPRESENTATION ( #75, #17 ) ;
#249 = CONICAL_SURFACE ( 'NONE', #195, 1.500000000000000000, 0.7853981633974479459 ) ;
#250 = APPLICATION_PROTOCOL_DEFINITION ( 'draft international standard', 'automotive_design', 1998, #30 ) ;
#251 = CONICAL_SURFACE ( 'NONE', #50, 1.229500000000000037, 0.7853981633974473908 ) ;
#252 = CARTESIAN_POINT ( 'NONE',  ( 7.000000000000000000, 0.000000000000000000, 6.000000000000000000 ) ) ;
#253 = EDGE_CURVE ( 'NONE', #286, #256, #355, .T. ) ;
#254 = ORIENTED_EDGE ( 'NONE', *, *, #107, .T. ) ;
#255 = EDGE_CURVE ( 'NONE', #65, #43, #199, .T. ) ;
#256 = VERTEX_POINT ( 'NONE', #123 ) ;
#257 = DIRECTION ( 'NONE',  ( 0.000000000000000000, 0.000000000000000000, 1.000000000000000000 ) ) ;
#258 = ORIENTED_EDGE ( 'NONE', *, *, #182, .F. ) ;
#259 = VERTEX_POINT ( 'NONE', #224 ) ;
#260 = SURFACE_STYLE_USAGE ( .BOTH. , #202 ) ;
#261 = CIRCLE ( 'NONE', #90, 1.229500000000000037 ) ;
#262 = CARTESIAN_POINT ( 'NONE',  ( 0.000000000000000000, 0.000000000000000000, 1.500000000000000000 ) ) ;
#263 = ORIENTED_EDGE ( 'NONE', *, *, #217, .T. ) ;
#264 = CARTESIAN_POINT ( 'NONE',  ( 0.000000000000000000, -0.2705000000000003513, 0.000000000000000000 ) ) ;
#265 = ORIENTED_EDGE ( 'NONE', *, *, #27, .F. ) ;
#266 = ORIENTED_EDGE ( 'NONE', *, *, #93, .F. ) ;
#267 = DIRECTION ( 'NONE',  ( 8.659560562354930393E-17, -0.7071067811865479058, 0.7071067811865472397 ) ) ;
#268 = FACE_OUTER_BOUND ( 'NONE', #39, .T. ) ;
#269 = CARTESIAN_POINT ( 'NONE',  ( 7.000000000000000000, 0.000000000000000000, 6.000000000000000000 ) ) ;
#270 = DIRECTION ( 'NONE',  ( -0.000000000000000000, -1.000000000000000000, -0.000000000000000000 ) ) ;
#271 = AXIS2_PLACEMENT_3D ( 'NONE', #165, #359, #49 ) ;
#272 = DIRECTION ( 'NONE',  ( -1.000000000000000000, 0.000000000000000000, -0.000000000000000000 ) ) ;
#273 = EDGE_CURVE ( 'NONE', #43, #65, #342, .T. ) ;
#274 = CARTESIAN_POINT ( 'NONE',  ( -7.000000000000000000, 0.000000000000000000, 6.000000000000000000 ) ) ;
#275 = CARTESIAN_POINT ( 'NONE',  ( 0.000000000000000000, -0.2705000000000003513, 1.229500000000000037 ) ) ;
#276 = CARTESIAN_POINT ( 'NONE',  ( 1.505703239551670824E-16, -0.2705000000000003513, -1.229500000000000037 ) ) ;
#277 = UNCERTAINTY_MEASURE_WITH_UNIT (LENGTH_MEASURE( 1.000000000000000082E-05 ), #117, 'distance_accuracy_value', 'NONE');
#278 = DIRECTION ( 'NONE',  ( 0.000000000000000000, 0.000000000000000000, 1.000000000000000000 ) ) ;
#279 = MECHANICAL_DESIGN_GEOMETRIC_PRESENTATION_REPRESENTATION (  '', ( #228 ), #230 ) ;
#280 = DIRECTION ( 'NONE',  ( 0.000000000000000000, 1.000000000000000000, 0.000000000000000000 ) ) ;
#281 = VECTOR ( 'NONE', #196, 1000.000000000000000 ) ;
#282 = PRODUCT_RELATED_PRODUCT_CATEGORY ( 'part', '', ( #136 ) ) ;
#283 = ORIENTED_EDGE ( 'NONE', *, *, #38, .F. ) ;
#284 = ADVANCED_FACE ( 'CONE_1', ( #222 ), #41, .F. ) ;
#285 = FILL_AREA_STYLE_COLOUR ( '', #31 ) ;
#286 = VERTEX_POINT ( 'NONE', #227 ) ;
#287 = CIRCLE ( 'NONE', #318, 1.229500000000000037 ) ;
#288 = ORIENTED_EDGE ( 'NONE', *, *, #253, .F. ) ;
#289 = DIRECTION ( 'NONE',  ( 0.000000000000000000, 1.000000000000000000, 0.000000000000000000 ) ) ;
#290 = CARTESIAN_POINT ( 'NONE',  ( 0.000000000000000000, -0.2705000000000003513, 1.229500000000000037 ) ) ;
#291 = EDGE_LOOP ( 'NONE', ( #205, #125, #44, #353 ) ) ;
#292 = CONICAL_SURFACE ( 'NONE', #212, 1.229500000000000037, 0.7853981633974473908 ) ;
#293 = DIRECTION ( 'NONE',  ( 0.000000000000000000, 0.000000000000000000, 1.000000000000000000 ) ) ;
#294 = VERTEX_POINT ( 'NONE', #343 ) ;
#295 = ORIENTED_EDGE ( 'NONE', *, *, #328, .T. ) ;
#296 = DIRECTION ( 'NONE',  ( 0.000000000000000000, 0.000000000000000000, 1.000000000000000000 ) ) ;
#297 = DIRECTION ( 'NONE',  ( 0.000000000000000000, 0.000000000000000000, 1.000000000000000000 ) ) ;
#298 = EDGE_CURVE ( 'NONE', #101, #36, #173, .T. ) ;
#299 = ORIENTED_EDGE ( 'NONE', *, *, #328, .F. ) ;
#300 = LINE ( 'NONE', #141, #306 ) ;
#301 = AXIS2_PLACEMENT_3D ( 'NONE', #152, #280, #334 ) ;
#302 = DIRECTION ( 'NONE',  ( 0.000000000000000000, 1.000000000000000000, 0.000000000000000000 ) ) ;
#303 = PLANE ( 'NONE',  #309 ) ;
#304 = DIRECTION ( 'NONE',  ( 0.000000000000000000, -0.000000000000000000, 1.000000000000000000 ) ) ;
#305 =( NAMED_UNIT ( * ) SI_UNIT ( $, .STERADIAN. ) SOLID_ANGLE_UNIT ( ) );
#306 = VECTOR ( 'NONE', #53, 999.9999999999998863 ) ;
#307 = LINE ( 'NONE', #275, #163 ) ;
#308 = PLANE ( 'NONE',  #58 ) ;
#309 = AXIS2_PLACEMENT_3D ( 'NONE', #24, #189, #304 ) ;
#310 =( NAMED_UNIT ( * ) PLANE_ANGLE_UNIT ( ) SI_UNIT ( $, .RADIAN. ) );
#311 = MANIFOLD_SOLID_BREP ( 'Body-Move/Copy1', #116 ) ;
#312 = ADVANCED_FACE ( 'PLANAR_1', ( #6, #35 ), #60, .F. ) ;
#313 = CARTESIAN_POINT ( 'NONE',  ( 0.000000000000000000, -3.000000000000000000, 1.229500000000000037 ) ) ;
#314 = ORIENTED_EDGE ( 'NONE', *, *, #218, .F. ) ;
#315 = ORIENTED_EDGE ( 'NONE', *, *, #218, .T. ) ;
#316 = AXIS2_PLACEMENT_3D ( 'NONE', #10, #95, #175 ) ;
#317 = ORIENTED_EDGE ( 'NONE', *, *, #93, .T. ) ;
#318 = AXIS2_PLACEMENT_3D ( 'NONE', #18, #128, #348 ) ;
#319 = ORIENTED_EDGE ( 'NONE', *, *, #354, .T. ) ;
#320 = CARTESIAN_POINT ( 'NONE',  ( 0.000000000000000000, -3.000000000000000000, -1.500000000000000000 ) ) ;
#321 = ORIENTED_EDGE ( 'NONE', *, *, #217, .F. ) ;
#322 = VECTOR ( 'NONE', #26, 1000.000000000000000 ) ;
#323 = VERTEX_POINT ( 'NONE', #70 ) ;
#324 = EDGE_LOOP ( 'NONE', ( #185, #326 ) ) ;
#325 = EDGE_CURVE ( 'NONE', #323, #16, #145, .T. ) ;
#326 = ORIENTED_EDGE ( 'NONE', *, *, #325, .F. ) ;
#327 = DIRECTION ( 'NONE',  ( 8.659560562354926695E-17, 0.7071067811865481278, -0.7071067811865470176 ) ) ;
#328 = EDGE_CURVE ( 'NONE', #259, #40, #89, .T. ) ;
#329 = LINE ( 'NONE', #164, #322 ) ;
#330 = PRESENTATION_LAYER_ASSIGNMENT (  '', '', ( #228 ) ) ;
#331 = DIRECTION ( 'NONE',  ( -1.000000000000000000, 0.000000000000000000, 0.000000000000000000 ) ) ;
#332 =( GEOMETRIC_REPRESENTATION_CONTEXT ( 3 ) GLOBAL_UNCERTAINTY_ASSIGNED_CONTEXT ( ( #245 ) ) GLOBAL_UNIT_ASSIGNED_CONTEXT ( ( #147, #215, #305 ) ) REPRESENTATION_CONTEXT ( 'NONE', 'WORKASPACE' ) );
#333 = LINE ( 'NONE', #213, #156 ) ;
#334 = DIRECTION ( 'NONE',  ( 0.000000000000000000, 0.000000000000000000, 1.000000000000000000 ) ) ;
#335 = DIRECTION ( 'NONE',  ( 1.000000000000000000, 0.000000000000000000, 0.000000000000000000 ) ) ;
#336 = DIRECTION ( 'NONE',  ( 0.000000000000000000, 1.000000000000000000, 0.000000000000000000 ) ) ;
#337 = CARTESIAN_POINT ( 'NONE',  ( -7.000000000000000000, 0.000000000000000000, 6.000000000000000000 ) ) ;
#338 = VECTOR ( 'NONE', #197, 1000.000000000000000 ) ;
#339 = CARTESIAN_POINT ( 'NONE',  ( 0.000000000000000000, 0.000000000000000000, 0.000000000000000000 ) ) ;
#340 = ADVANCED_FACE ( 'CYL_0', ( #146 ), #84, .F. ) ;
#341 = EDGE_CURVE ( 'NONE', #159, #183, #113, .T. ) ;
#342 = CIRCLE ( 'NONE', #358, 1.500000000000000000 ) ;
#343 = CARTESIAN_POINT ( 'NONE',  ( 1.505703239551670824E-16, -2.729499999999999815, -1.229500000000000037 ) ) ;
#344 = SURFACE_STYLE_FILL_AREA ( #177 ) ;
#345 = ORIENTED_EDGE ( 'NONE', *, *, #57, .F. ) ;
#346 = VERTEX_POINT ( 'NONE', #198 ) ;
#347 = DIRECTION ( 'NONE',  ( 0.000000000000000000, 0.000000000000000000, 1.000000000000000000 ) ) ;
#348 = DIRECTION ( 'NONE',  ( 0.000000000000000000, 0.000000000000000000, 1.000000000000000000 ) ) ;
#349 = EDGE_LOOP ( 'NONE', ( #317, #178, #67, #350 ) ) ;
#350 = ORIENTED_EDGE ( 'NONE', *, *, #57, .T. ) ;
#351 = EDGE_CURVE ( 'NONE', #36, #16, #307, .T. ) ;
#352 = DIRECTION ( 'NONE',  ( 0.000000000000000000, 0.000000000000000000, -1.000000000000000000 ) ) ;
#353 = ORIENTED_EDGE ( 'NONE', *, *, #148, .T. ) ;
#354 = EDGE_CURVE ( 'NONE', #16, #323, #62, .T. ) ;
#355 = LINE ( 'NONE', #105, #138 ) ;
#356 = CARTESIAN_POINT ( 'NONE',  ( 0.000000000000000000, -2.729499999999999815, 0.000000000000000000 ) ) ;
#357 = DIRECTION ( 'NONE',  ( 0.000000000000000000, 0.000000000000000000, 1.000000000000000000 ) ) ;
#358 = AXIS2_PLACEMENT_3D ( 'NONE', #13, #289, #126 ) ;
#359 = DIRECTION ( 'NONE',  ( 0.000000000000000000, 1.000000000000000000, 0.000000000000000000 ) ) ;
#360 = DIRECTION ( 'NONE',  ( 0.000000000000000000, 0.000000000000000000, -1.000000000000000000 ) ) ;
#361 = CARTESIAN_POINT ( 'NONE',  ( 0.000000000000000000, -3.000000000000000000, 0.000000000000000000 ) ) ;
ENDSEC;
END-ISO-10303-21;
