ISO-10303-21;
HEADER;
FILE_DESCRIPTION (( 'STEP AP214' ),
    '1' );
FILE_NAME ('1.31.EM8.STEP',
    '2024-10-04T16:02:56',
    ( '' ),
    ( '' ),
    'SwSTEP 2.0',
    'SolidWorks 2024',
    '' );
FILE_SCHEMA (( 'AUTOMOTIVE_DESIGN' ));
ENDSEC;

DATA;
#1 = CARTESIAN_POINT ( 'NONE',  ( -10.00000000000000000, 0.000000000000000000, -10.00000000000000000 ) ) ;
#2 = AXIS2_PLACEMENT_3D ( 'NONE', #325, #329, #31 ) ;
#3 = AXIS2_PLACEMENT_3D ( 'NONE', #49, #153, #109 ) ;
#4 = EDGE_CURVE ( 'NONE', #211, #290, #158, .T. ) ;
#5 = EDGE_CURVE ( 'NONE', #335, #179, #202, .T. ) ;
#6 = CARTESIAN_POINT ( 'NONE',  ( 0.000000000000000000, -4.000000000000000000, -4.000000000000000000 ) ) ;
#7 = VECTOR ( 'NONE', #225, 1000.000000000000000 ) ;
#8 = COLOUR_RGB ( '',0.7921568627450980005, 0.8196078431372548767, 0.9333333333333333481 ) ;
#9 = ORIENTED_EDGE ( 'NONE', *, *, #238, .T. ) ;
#10 = ORIENTED_EDGE ( 'NONE', *, *, #318, .T. ) ;
#11 = ADVANCED_BREP_SHAPE_REPRESENTATION ( '1.31.EM8', ( #310, #288 ), #91 ) ;
#12 = CLOSED_SHELL ( 'NONE', ( #199, #75, #175, #144, #108, #358, #324, #307, #291, #44, #182, #259 ) ) ;
#13 = ORIENTED_EDGE ( 'NONE', *, *, #34, .F. ) ;
#14 = ORIENTED_EDGE ( 'NONE', *, *, #340, .T. ) ;
#15 = FACE_OUTER_BOUND ( 'NONE', #116, .T. ) ;
#16 = ORIENTED_EDGE ( 'NONE', *, *, #60, .F. ) ;
#17 = APPLICATION_CONTEXT ( 'automotive_design' ) ;
#18 =( NAMED_UNIT ( * ) SI_UNIT ( $, .STERADIAN. ) SOLID_ANGLE_UNIT ( ) );
#19 = VECTOR ( 'NONE', #356, 1000.000000000000000 ) ;
#20 = VECTOR ( 'NONE', #245, 1000.000000000000000 ) ;
#21 = DIRECTION ( 'NONE',  ( 0.000000000000000000, 1.000000000000000000, 0.000000000000000000 ) ) ;
#22 = DIRECTION ( 'NONE',  ( 1.000000000000000000, 0.000000000000000000, 0.000000000000000000 ) ) ;
#23 = FILL_AREA_STYLE ('',( #352 ) ) ;
#24 = EDGE_LOOP ( 'NONE', ( #181, #208 ) ) ;
#25 = LINE ( 'NONE', #135, #19 ) ;
#26 =( NAMED_UNIT ( * ) PLANE_ANGLE_UNIT ( ) SI_UNIT ( $, .RADIAN. ) );
#27 = PRODUCT_RELATED_PRODUCT_CATEGORY ( 'part', '', ( #347 ) ) ;
#28 = CARTESIAN_POINT ( 'NONE',  ( 10.00000000000000000, -4.000000000000000000, 10.00000000000000000 ) ) ;
#29 = VECTOR ( 'NONE', #240, 1000.000000000000000 ) ;
#30 = CIRCLE ( 'NONE', #261, 3.323500000000000121 ) ;
#31 = DIRECTION ( 'NONE',  ( 0.000000000000000000, 0.000000000000000000, 1.000000000000000000 ) ) ;
#32 = CARTESIAN_POINT ( 'NONE',  ( -10.00000000000000000, 0.000000000000000000, 10.00000000000000000 ) ) ;
#33 = FACE_OUTER_BOUND ( 'NONE', #69, .T. ) ;
#34 = EDGE_CURVE ( 'NONE', #249, #343, #218, .T. ) ;
#35 = CARTESIAN_POINT ( 'NONE',  ( 10.00000000000000000, 0.000000000000000000, -10.00000000000000000 ) ) ;
#36 = AXIS2_PLACEMENT_3D ( 'NONE', #196, #326, #213 ) ;
#37 = EDGE_LOOP ( 'NONE', ( #66, #235, #127, #147 ) ) ;
#38 = DIRECTION ( 'NONE',  ( 0.000000000000000000, 0.000000000000000000, -1.000000000000000000 ) ) ;
#39 = ORIENTED_EDGE ( 'NONE', *, *, #139, .T. ) ;
#40 = AXIS2_PLACEMENT_3D ( 'NONE', #176, #145, #316 ) ;
#41 = CONICAL_SURFACE ( 'NONE', #300, 3.323500000000000121, 0.7853981633974482790 ) ;
#42 = DIRECTION ( 'NONE',  ( -1.000000000000000000, 0.000000000000000000, 0.000000000000000000 ) ) ;
#43 = VERTEX_POINT ( 'NONE', #48 ) ;
#44 = ADVANCED_FACE ( 'CONE_0', ( #155 ), #222, .F. ) ;
#45 = PRODUCT_DEFINITION_SHAPE ( 'NONE', 'NONE',  #270 ) ;
#46 = CARTESIAN_POINT ( 'NONE',  ( -10.00000000000000000, 0.000000000000000000, -10.00000000000000000 ) ) ;
#47 = ORIENTED_EDGE ( 'NONE', *, *, #332, .T. ) ;
#48 = CARTESIAN_POINT ( 'NONE',  ( -10.00000000000000000, -4.000000000000000000, -10.00000000000000000 ) ) ;
#49 = CARTESIAN_POINT ( 'NONE',  ( 0.000000000000000000, -4.000000000000000000, 0.000000000000000000 ) ) ;
#50 = ORIENTED_EDGE ( 'NONE', *, *, #89, .T. ) ;
#51 = LINE ( 'NONE', #247, #137 ) ;
#52 = CARTESIAN_POINT ( 'NONE',  ( 10.00000000000000000, 0.000000000000000000, 10.00000000000000000 ) ) ;
#53 = CARTESIAN_POINT ( 'NONE',  ( 10.00000000000000000, 0.000000000000000000, -10.00000000000000000 ) ) ;
#54 = CARTESIAN_POINT ( 'NONE',  ( 4.484350416777819644E-16, -0.6764999999999999902, -3.323500000000000121 ) ) ;
#55 = LINE ( 'NONE', #117, #275 ) ;
#56 = UNCERTAINTY_MEASURE_WITH_UNIT (LENGTH_MEASURE( 1.000000000000000082E-05 ), #305, 'distance_accuracy_value', 'NONE');
#57 = VECTOR ( 'NONE', #94, 1000.000000000000000 ) ;
#58 = PRESENTATION_LAYER_ASSIGNMENT (  '', '', ( #149 ) ) ;
#59 = CARTESIAN_POINT ( 'NONE',  ( 0.000000000000000000, -4.000000000000000000, 0.000000000000000000 ) ) ;
#60 = EDGE_CURVE ( 'NONE', #249, #317, #301, .T. ) ;
#61 = DIRECTION ( 'NONE',  ( 0.000000000000000000, 0.000000000000000000, -1.000000000000000000 ) ) ;
#62 = PRODUCT_CONTEXT ( 'NONE', #17, 'mechanical' ) ;
#63 = AXIS2_PLACEMENT_3D ( 'NONE', #313, #120, #38 ) ;
#64 = AXIS2_PLACEMENT_3D ( 'NONE', #52, #42, #224 ) ;
#65 = LINE ( 'NONE', #70, #233 ) ;
#66 = ORIENTED_EDGE ( 'NONE', *, *, #286, .F. ) ;
#67 = DIRECTION ( 'NONE',  ( 0.000000000000000000, 1.000000000000000000, 0.000000000000000000 ) ) ;
#68 = MECHANICAL_DESIGN_GEOMETRIC_PRESENTATION_REPRESENTATION (  '', ( #149 ), #292 ) ;
#69 = EDGE_LOOP ( 'NONE', ( #348, #125, #297, #361 ) ) ;
#70 = CARTESIAN_POINT ( 'NONE',  ( -10.00000000000000000, 0.000000000000000000, -10.00000000000000000 ) ) ;
#71 = ORIENTED_EDGE ( 'NONE', *, *, #286, .T. ) ;
#72 = DIRECTION ( 'NONE',  ( 0.000000000000000000, 0.000000000000000000, 1.000000000000000000 ) ) ;
#73 = ORIENTED_EDGE ( 'NONE', *, *, #89, .F. ) ;
#74 = VECTOR ( 'NONE', #173, 1000.000000000000000 ) ;
#75 = ADVANCED_FACE ( 'CYL_0', ( #351 ), #308, .F. ) ;
#76 = VERTEX_POINT ( 'NONE', #53 ) ;
#77 = ORIENTED_EDGE ( 'NONE', *, *, #4, .F. ) ;
#78 = CARTESIAN_POINT ( 'NONE',  ( 4.898587196589412829E-16, 0.000000000000000000, -4.000000000000000000 ) ) ;
#79 = VERTEX_POINT ( 'NONE', #254 ) ;
#80 = CARTESIAN_POINT ( 'NONE',  ( -10.00000000000000000, 0.000000000000000000, -10.00000000000000000 ) ) ;
#81 = CARTESIAN_POINT ( 'NONE',  ( 4.898587196589412829E-16, -4.000000000000000000, 4.000000000000000000 ) ) ;
#82 = AXIS2_PLACEMENT_3D ( 'NONE', #114, #195, #333 ) ;
#83 = DIRECTION ( 'NONE',  ( 0.000000000000000000, 0.000000000000000000, 1.000000000000000000 ) ) ;
#84 = LINE ( 'NONE', #296, #277 ) ;
#85 = LINE ( 'NONE', #252, #287 ) ;
#86 = CARTESIAN_POINT ( 'NONE',  ( 10.00000000000000000, 0.000000000000000000, -10.00000000000000000 ) ) ;
#87 = FACE_BOUND ( 'NONE', #24, .T. ) ;
#88 = ORIENTED_EDGE ( 'NONE', *, *, #318, .F. ) ;
#89 = EDGE_CURVE ( 'NONE', #290, #179, #51, .T. ) ;
#90 = CIRCLE ( 'NONE', #229, 3.323500000000000121 ) ;
#91 =( GEOMETRIC_REPRESENTATION_CONTEXT ( 3 ) GLOBAL_UNCERTAINTY_ASSIGNED_CONTEXT ( ( #330 ) ) GLOBAL_UNIT_ASSIGNED_CONTEXT ( ( #205, #309, #337 ) ) REPRESENTATION_CONTEXT ( 'NONE', 'WORKASPACE' ) );
#92 = CARTESIAN_POINT ( 'NONE',  ( 10.00000000000000000, 0.000000000000000000, -10.00000000000000000 ) ) ;
#93 = DIRECTION ( 'NONE',  ( 0.000000000000000000, 0.000000000000000000, 1.000000000000000000 ) ) ;
#94 = DIRECTION ( 'NONE',  ( -1.000000000000000000, 0.000000000000000000, 0.000000000000000000 ) ) ;
#95 = EDGE_LOOP ( 'NONE', ( #130, #210 ) ) ;
#96 = EDGE_LOOP ( 'NONE', ( #191, #183, #237, #295 ) ) ;
#97 = CARTESIAN_POINT ( 'NONE',  ( 4.070113636966228431E-16, -3.323500000000000121, -3.323500000000000121 ) ) ;
#98 = EDGE_LOOP ( 'NONE', ( #132, #50, #9, #341 ) ) ;
#99 = ORIENTED_EDGE ( 'NONE', *, *, #100, .F. ) ;
#100 = EDGE_CURVE ( 'NONE', #317, #76, #85, .T. ) ;
#101 = ORIENTED_EDGE ( 'NONE', *, *, #34, .T. ) ;
#102 = VECTOR ( 'NONE', #250, 1000.000000000000000 ) ;
#103 = DIRECTION ( 'NONE',  ( 0.000000000000000000, 0.000000000000000000, 1.000000000000000000 ) ) ;
#104 = ORIENTED_EDGE ( 'NONE', *, *, #332, .F. ) ;
#105 = CARTESIAN_POINT ( 'NONE',  ( 10.00000000000000000, -4.000000000000000000, 10.00000000000000000 ) ) ;
#106 = VERTEX_POINT ( 'NONE', #107 ) ;
#107 = CARTESIAN_POINT ( 'NONE',  ( 0.000000000000000000, -0.6764999999999999902, 3.323500000000000121 ) ) ;
#108 = ADVANCED_FACE ( 'PLANAR_1', ( #197, #87 ), #159, .F. ) ;
#109 = DIRECTION ( 'NONE',  ( 0.000000000000000000, 0.000000000000000000, 1.000000000000000000 ) ) ;
#110 = CARTESIAN_POINT ( 'NONE',  ( 0.000000000000000000, -0.6764999999999999902, 0.000000000000000000 ) ) ;
#111 = DIRECTION ( 'NONE',  ( 0.000000000000000000, 0.000000000000000000, 1.000000000000000000 ) ) ;
#112 = AXIS2_PLACEMENT_3D ( 'NONE', #285, #304, #276 ) ;
#113 = LINE ( 'NONE', #80, #7 ) ;
#114 = CARTESIAN_POINT ( 'NONE',  ( 0.000000000000000000, -4.000000000000000000, 0.000000000000000000 ) ) ;
#115 = EDGE_CURVE ( 'NONE', #211, #188, #168, .T. ) ;
#116 = EDGE_LOOP ( 'NONE', ( #246, #13, #177, #39 ) ) ;
#117 = CARTESIAN_POINT ( 'NONE',  ( 0.000000000000000000, -4.000000000000000000, 3.323500000000000121 ) ) ;
#118 = PLANE ( 'NONE',  #178 ) ;
#119 = DIRECTION ( 'NONE',  ( 0.000000000000000000, -0.000000000000000000, 1.000000000000000000 ) ) ;
#120 = DIRECTION ( 'NONE',  ( -0.000000000000000000, -1.000000000000000000, -0.000000000000000000 ) ) ;
#121 = ORIENTED_EDGE ( 'NONE', *, *, #214, .T. ) ;
#122 = EDGE_LOOP ( 'NONE', ( #186, #88, #99, #154 ) ) ;
#123 = CARTESIAN_POINT ( 'NONE',  ( 4.898587196589412829E-16, -4.000000000000000000, 4.000000000000000000 ) ) ;
#124 = VERTEX_POINT ( 'NONE', #28 ) ;
#125 = ORIENTED_EDGE ( 'NONE', *, *, #216, .T. ) ;
#126 = FACE_OUTER_BOUND ( 'NONE', #314, .T. ) ;
#127 = ORIENTED_EDGE ( 'NONE', *, *, #163, .F. ) ;
#128 = CARTESIAN_POINT ( 'NONE',  ( 10.00000000000000000, 0.000000000000000000, 10.00000000000000000 ) ) ;
#129 = APPLICATION_CONTEXT ( 'automotive_design' ) ;
#130 = ORIENTED_EDGE ( 'NONE', *, *, #5, .F. ) ;
#131 = PLANE ( 'NONE',  #185 ) ;
#132 = ORIENTED_EDGE ( 'NONE', *, *, #302, .F. ) ;
#133 = CARTESIAN_POINT ( 'NONE',  ( 10.00000000000000000, 0.000000000000000000, 10.00000000000000000 ) ) ;
#134 = DIRECTION ( 'NONE',  ( 0.000000000000000000, 0.000000000000000000, -1.000000000000000000 ) ) ;
#135 = CARTESIAN_POINT ( 'NONE',  ( -10.00000000000000000, -4.000000000000000000, 10.00000000000000000 ) ) ;
#136 = DIRECTION ( 'NONE',  ( 0.000000000000000000, 1.000000000000000000, 0.000000000000000000 ) ) ;
#137 = VECTOR ( 'NONE', #219, 1000.000000000000000 ) ;
#138 = FACE_OUTER_BOUND ( 'NONE', #321, .T. ) ;
#139 = EDGE_CURVE ( 'NONE', #289, #43, #113, .T. ) ;
#140 = DIRECTION ( 'NONE',  ( 0.000000000000000000, 0.000000000000000000, -1.000000000000000000 ) ) ;
#141 = VECTOR ( 'NONE', #161, 1000.000000000000000 ) ;
#142 = SHAPE_DEFINITION_REPRESENTATION ( #45, #11 ) ;
#143 = CARTESIAN_POINT ( 'NONE',  ( 0.000000000000000000, -3.323500000000000121, 0.000000000000000000 ) ) ;
#144 = ADVANCED_FACE ( 'PLANAR_0', ( #327, #192 ), #255, .T. ) ;
#145 = DIRECTION ( 'NONE',  ( 0.000000000000000000, 1.000000000000000000, 0.000000000000000000 ) ) ;
#146 = LINE ( 'NONE', #264, #29 ) ;
#147 = ORIENTED_EDGE ( 'NONE', *, *, #357, .F. ) ;
#148 = VECTOR ( 'NONE', #281, 1000.000000000000000 ) ;
#149 = STYLED_ITEM ( 'NONE', ( #220 ), #310 ) ;
#150 = ORIENTED_EDGE ( 'NONE', *, *, #5, .T. ) ;
#151 = CARTESIAN_POINT ( 'NONE',  ( -10.00000000000000000, 0.000000000000000000, -10.00000000000000000 ) ) ;
#152 = VERTEX_POINT ( 'NONE', #353 ) ;
#153 = DIRECTION ( 'NONE',  ( 0.000000000000000000, 1.000000000000000000, 0.000000000000000000 ) ) ;
#154 = ORIENTED_EDGE ( 'NONE', *, *, #174, .T. ) ;
#155 = FACE_OUTER_BOUND ( 'NONE', #227, .T. ) ;
#156 = VECTOR ( 'NONE', #243, 1000.000000000000000 ) ;
#157 = CARTESIAN_POINT ( 'NONE',  ( 10.00000000000000000, -4.000000000000000000, -10.00000000000000000 ) ) ;
#158 = LINE ( 'NONE', #203, #156 ) ;
#159 = PLANE ( 'NONE',  #2 ) ;
#160 = DIRECTION ( 'NONE',  ( -1.000000000000000000, 0.000000000000000000, 0.000000000000000000 ) ) ;
#161 = DIRECTION ( 'NONE',  ( -0.000000000000000000, -1.000000000000000000, -0.000000000000000000 ) ) ;
#162 = LINE ( 'NONE', #157, #223 ) ;
#163 = EDGE_CURVE ( 'NONE', #343, #124, #25, .T. ) ;
#164 = FACE_OUTER_BOUND ( 'NONE', #98, .T. ) ;
#165 = DIRECTION ( 'NONE',  ( 0.000000000000000000, 0.000000000000000000, 1.000000000000000000 ) ) ;
#166 = CIRCLE ( 'NONE', #212, 4.000000000000000000 ) ;
#167 = CONICAL_SURFACE ( 'NONE', #172, 4.000000000000000000, 0.7853981633974483900 ) ;
#168 = LINE ( 'NONE', #359, #148 ) ;
#169 = DIRECTION ( 'NONE',  ( 1.000000000000000000, 0.000000000000000000, 0.000000000000000000 ) ) ;
#170 = CARTESIAN_POINT ( 'NONE',  ( 0.000000000000000000, 0.000000000000000000, 0.000000000000000000 ) ) ;
#171 = EDGE_CURVE ( 'NONE', #152, #106, #55, .T. ) ;
#172 = AXIS2_PLACEMENT_3D ( 'NONE', #236, #256, #61 ) ;
#173 = DIRECTION ( 'NONE',  ( 8.659560562354934091E-17, -0.7071067811865474617, 0.7071067811865475727 ) ) ;
#174 = EDGE_CURVE ( 'NONE', #317, #124, #226, .T. ) ;
#175 = ADVANCED_FACE ( 'CONE_0', ( #164 ), #41, .F. ) ;
#176 = CARTESIAN_POINT ( 'NONE',  ( 0.000000000000000000, -4.000000000000000000, 0.000000000000000000 ) ) ;
#177 = ORIENTED_EDGE ( 'NONE', *, *, #214, .F. ) ;
#178 = AXIS2_PLACEMENT_3D ( 'NONE', #92, #119, #257 ) ;
#179 = VERTEX_POINT ( 'NONE', #78 ) ;
#180 = LINE ( 'NONE', #123, #74 ) ;
#181 = ORIENTED_EDGE ( 'NONE', *, *, #204, .T. ) ;
#182 = ADVANCED_FACE ( 'CYL_0', ( #138 ), #189, .F. ) ;
#183 = ORIENTED_EDGE ( 'NONE', *, *, #4, .T. ) ;
#184 = AXIS2_PLACEMENT_3D ( 'NONE', #1, #201, #280 ) ;
#185 = AXIS2_PLACEMENT_3D ( 'NONE', #46, #331, #134 ) ;
#186 = ORIENTED_EDGE ( 'NONE', *, *, #334, .T. ) ;
#187 = DIRECTION ( 'NONE',  ( 0.000000000000000000, 0.000000000000000000, 1.000000000000000000 ) ) ;
#188 = VERTEX_POINT ( 'NONE', #6 ) ;
#189 = CYLINDRICAL_SURFACE ( 'NONE', #82, 3.323500000000000121 ) ;
#190 = CARTESIAN_POINT ( 'NONE',  ( 0.000000000000000000, 0.000000000000000000, 4.000000000000000000 ) ) ;
#191 = ORIENTED_EDGE ( 'NONE', *, *, #231, .F. ) ;
#192 = FACE_BOUND ( 'NONE', #95, .T. ) ;
#193 = CONICAL_SURFACE ( 'NONE', #63, 4.000000000000000000, 0.7853981633974483900 ) ;
#194 = FACE_OUTER_BOUND ( 'NONE', #122, .T. ) ;
#195 = DIRECTION ( 'NONE',  ( 0.000000000000000000, 1.000000000000000000, 0.000000000000000000 ) ) ;
#196 = CARTESIAN_POINT ( 'NONE',  ( -10.00000000000000000, 0.000000000000000000, 10.00000000000000000 ) ) ;
#197 = FACE_OUTER_BOUND ( 'NONE', #37, .T. ) ;
#198 = PRODUCT_DEFINITION_CONTEXT ( 'detailed design', #129, 'design' ) ;
#199 = ADVANCED_FACE ( 'CONE_1', ( #33 ), #193, .F. ) ;
#200 = APPLICATION_PROTOCOL_DEFINITION ( 'draft international standard', 'automotive_design', 1998, #17 ) ;
#201 = DIRECTION ( 'NONE',  ( 0.000000000000000000, 1.000000000000000000, -0.000000000000000000 ) ) ;
#202 = CIRCLE ( 'NONE', #336, 4.000000000000000000 ) ;
#203 = CARTESIAN_POINT ( 'NONE',  ( 4.070113636966228431E-16, -4.000000000000000000, -3.323500000000000121 ) ) ;
#204 = EDGE_CURVE ( 'NONE', #188, #279, #355, .T. ) ;
#205 =( LENGTH_UNIT ( ) NAMED_UNIT ( * ) SI_UNIT ( .MILLI., .METRE. ) );
#206 = EDGE_CURVE ( 'NONE', #106, #335, #146, .T. ) ;
#207 = CARTESIAN_POINT ( 'NONE',  ( -10.00000000000000000, 0.000000000000000000, 10.00000000000000000 ) ) ;
#208 = ORIENTED_EDGE ( 'NONE', *, *, #269, .T. ) ;
#209 = ORIENTED_EDGE ( 'NONE', *, *, #100, .T. ) ;
#210 = ORIENTED_EDGE ( 'NONE', *, *, #238, .F. ) ;
#211 = VERTEX_POINT ( 'NONE', #97 ) ;
#212 = AXIS2_PLACEMENT_3D ( 'NONE', #232, #338, #93 ) ;
#213 = DIRECTION ( 'NONE',  ( -1.000000000000000000, 0.000000000000000000, -0.000000000000000000 ) ) ;
#214 = EDGE_CURVE ( 'NONE', #289, #249, #65, .T. ) ;
#215 = ORIENTED_EDGE ( 'NONE', *, *, #163, .T. ) ;
#216 = EDGE_CURVE ( 'NONE', #152, #279, #180, .T. ) ;
#217 = DIRECTION ( 'NONE',  ( 0.000000000000000000, 0.000000000000000000, -1.000000000000000000 ) ) ;
#218 = LINE ( 'NONE', #323, #141 ) ;
#219 = DIRECTION ( 'NONE',  ( 8.659560562354931626E-17, 0.7071067811865475727, -0.7071067811865474617 ) ) ;
#220 = PRESENTATION_STYLE_ASSIGNMENT (( #253 ) ) ;
#221 = DIRECTION ( 'NONE',  ( 0.000000000000000000, 1.000000000000000000, 0.000000000000000000 ) ) ;
#222 = CONICAL_SURFACE ( 'NONE', #112, 3.323500000000000121, 0.7853981633974482790 ) ;
#223 = VECTOR ( 'NONE', #160, 1000.000000000000000 ) ;
#224 = DIRECTION ( 'NONE',  ( 0.000000000000000000, 0.000000000000000000, 1.000000000000000000 ) ) ;
#225 = DIRECTION ( 'NONE',  ( -0.000000000000000000, -1.000000000000000000, -0.000000000000000000 ) ) ;
#226 = LINE ( 'NONE', #133, #102 ) ;
#227 = EDGE_LOOP ( 'NONE', ( #73, #104, #315, #150 ) ) ;
#228 = DIRECTION ( 'NONE',  ( 0.000000000000000000, 1.000000000000000000, 0.000000000000000000 ) ) ;
#229 = AXIS2_PLACEMENT_3D ( 'NONE', #298, #278, #346 ) ;
#230 = PRODUCT_DEFINITION_FORMATION_WITH_SPECIFIED_SOURCE ( 'ANY', '', #347, .NOT_KNOWN. ) ;
#231 = EDGE_CURVE ( 'NONE', #211, #152, #284, .T. ) ;
#232 = CARTESIAN_POINT ( 'NONE',  ( 0.000000000000000000, 0.000000000000000000, 0.000000000000000000 ) ) ;
#233 = VECTOR ( 'NONE', #72, 1000.000000000000000 ) ;
#234 = LINE ( 'NONE', #35, #57 ) ;
#235 = ORIENTED_EDGE ( 'NONE', *, *, #334, .F. ) ;
#236 = CARTESIAN_POINT ( 'NONE',  ( 0.000000000000000000, -4.000000000000000000, 0.000000000000000000 ) ) ;
#237 = ORIENTED_EDGE ( 'NONE', *, *, #302, .T. ) ;
#238 = EDGE_CURVE ( 'NONE', #179, #335, #166, .T. ) ;
#239 = ORIENTED_EDGE ( 'NONE', *, *, #171, .T. ) ;
#240 = DIRECTION ( 'NONE',  ( 0.000000000000000000, 0.7071067811865475727, 0.7071067811865474617 ) ) ;
#241 = ORIENTED_EDGE ( 'NONE', *, *, #174, .F. ) ;
#242 = EDGE_CURVE ( 'NONE', #76, #289, #234, .T. ) ;
#243 = DIRECTION ( 'NONE',  ( 0.000000000000000000, 1.000000000000000000, 0.000000000000000000 ) ) ;
#244 = VECTOR ( 'NONE', #217, 1000.000000000000000 ) ;
#245 = DIRECTION ( 'NONE',  ( -0.000000000000000000, -1.000000000000000000, -0.000000000000000000 ) ) ;
#246 = ORIENTED_EDGE ( 'NONE', *, *, #357, .T. ) ;
#247 = CARTESIAN_POINT ( 'NONE',  ( 4.070113636966228431E-16, -0.6764999999999999902, -3.323500000000000121 ) ) ;
#248 = SURFACE_STYLE_FILL_AREA ( #23 ) ;
#249 = VERTEX_POINT ( 'NONE', #207 ) ;
#250 = DIRECTION ( 'NONE',  ( -0.000000000000000000, -1.000000000000000000, -0.000000000000000000 ) ) ;
#251 = CARTESIAN_POINT ( 'NONE',  ( 0.000000000000000000, -0.6764999999999999902, 0.000000000000000000 ) ) ;
#252 = CARTESIAN_POINT ( 'NONE',  ( 10.00000000000000000, 0.000000000000000000, 10.00000000000000000 ) ) ;
#253 = SURFACE_STYLE_USAGE ( .BOTH. , #273 ) ;
#254 = CARTESIAN_POINT ( 'NONE',  ( 10.00000000000000000, -4.000000000000000000, -10.00000000000000000 ) ) ;
#255 = PLANE ( 'NONE',  #184 ) ;
#256 = DIRECTION ( 'NONE',  ( -0.000000000000000000, -1.000000000000000000, -0.000000000000000000 ) ) ;
#257 = DIRECTION ( 'NONE',  ( 1.000000000000000000, 0.000000000000000000, -0.000000000000000000 ) ) ;
#258 = DIRECTION ( 'NONE',  ( 0.000000000000000000, 0.000000000000000000, 1.000000000000000000 ) ) ;
#259 = ADVANCED_FACE ( 'CONE_1', ( #262 ), #167, .F. ) ;
#260 = CIRCLE ( 'NONE', #3, 4.000000000000000000 ) ;
#261 = AXIS2_PLACEMENT_3D ( 'NONE', #251, #349, #187 ) ;
#262 = FACE_OUTER_BOUND ( 'NONE', #345, .T. ) ;
#263 = ORIENTED_EDGE ( 'NONE', *, *, #242, .F. ) ;
#264 = CARTESIAN_POINT ( 'NONE',  ( 0.000000000000000000, -0.6764999999999999902, 3.323500000000000121 ) ) ;
#265 = ORIENTED_EDGE ( 'NONE', *, *, #139, .F. ) ;
#266 = CIRCLE ( 'NONE', #312, 3.323500000000000121 ) ;
#267 = ORIENTED_EDGE ( 'NONE', *, *, #216, .F. ) ;
#268 = ORIENTED_EDGE ( 'NONE', *, *, #242, .T. ) ;
#269 = EDGE_CURVE ( 'NONE', #279, #188, #260, .T. ) ;
#270 = PRODUCT_DEFINITION ( 'UNKNOWN', '', #230, #198 ) ;
#271 = LINE ( 'NONE', #86, #20 ) ;
#272 = ORIENTED_EDGE ( 'NONE', *, *, #269, .F. ) ;
#273 = SURFACE_SIDE_STYLE ('',( #248 ) ) ;
#274 = CARTESIAN_POINT ( 'NONE',  ( 0.000000000000000000, 0.000000000000000000, 0.000000000000000000 ) ) ;
#275 = VECTOR ( 'NONE', #228, 1000.000000000000000 ) ;
#276 = DIRECTION ( 'NONE',  ( 0.000000000000000000, 0.000000000000000000, 1.000000000000000000 ) ) ;
#277 = VECTOR ( 'NONE', #103, 1000.000000000000000 ) ;
#278 = DIRECTION ( 'NONE',  ( 0.000000000000000000, 1.000000000000000000, 0.000000000000000000 ) ) ;
#279 = VERTEX_POINT ( 'NONE', #81 ) ;
#280 = DIRECTION ( 'NONE',  ( 0.000000000000000000, 0.000000000000000000, 1.000000000000000000 ) ) ;
#281 = DIRECTION ( 'NONE',  ( 0.000000000000000000, -0.7071067811865474617, -0.7071067811865475727 ) ) ;
#282 = CARTESIAN_POINT ( 'NONE',  ( 0.000000000000000000, -0.6764999999999999902, 0.000000000000000000 ) ) ;
#283 = DIRECTION ( 'NONE',  ( 0.000000000000000000, 0.000000000000000000, 1.000000000000000000 ) ) ;
#284 = CIRCLE ( 'NONE', #319, 3.323500000000000121 ) ;
#285 = CARTESIAN_POINT ( 'NONE',  ( 0.000000000000000000, -0.6764999999999999902, 0.000000000000000000 ) ) ;
#286 = EDGE_CURVE ( 'NONE', #79, #43, #162, .T. ) ;
#287 = VECTOR ( 'NONE', #140, 1000.000000000000000 ) ;
#288 = AXIS2_PLACEMENT_3D ( 'NONE', #170, #165, #169 ) ;
#289 = VERTEX_POINT ( 'NONE', #151 ) ;
#290 = VERTEX_POINT ( 'NONE', #54 ) ;
#291 = ADVANCED_FACE ( 'PLANAR_5', ( #194 ), #303, .F. ) ;
#292 =( GEOMETRIC_REPRESENTATION_CONTEXT ( 3 ) GLOBAL_UNCERTAINTY_ASSIGNED_CONTEXT ( ( #56 ) ) GLOBAL_UNIT_ASSIGNED_CONTEXT ( ( #305, #26, #18 ) ) REPRESENTATION_CONTEXT ( 'NONE', 'WORKASPACE' ) );
#293 = EDGE_LOOP ( 'NONE', ( #268, #121, #320, #209 ) ) ;
#294 = FACE_OUTER_BOUND ( 'NONE', #342, .T. ) ;
#295 = ORIENTED_EDGE ( 'NONE', *, *, #171, .F. ) ;
#296 = CARTESIAN_POINT ( 'NONE',  ( -10.00000000000000000, -4.000000000000000000, -10.00000000000000000 ) ) ;
#297 = ORIENTED_EDGE ( 'NONE', *, *, #204, .F. ) ;
#298 = CARTESIAN_POINT ( 'NONE',  ( 0.000000000000000000, -3.323500000000000121, 0.000000000000000000 ) ) ;
#299 = ORIENTED_EDGE ( 'NONE', *, *, #115, .T. ) ;
#300 = AXIS2_PLACEMENT_3D ( 'NONE', #110, #221, #283 ) ;
#301 = LINE ( 'NONE', #32, #311 ) ;
#302 = EDGE_CURVE ( 'NONE', #290, #106, #266, .T. ) ;
#303 = PLANE ( 'NONE',  #64 ) ;
#304 = DIRECTION ( 'NONE',  ( 0.000000000000000000, 1.000000000000000000, 0.000000000000000000 ) ) ;
#305 =( LENGTH_UNIT ( ) NAMED_UNIT ( * ) SI_UNIT ( .MILLI., .METRE. ) );
#306 = DIRECTION ( 'NONE',  ( 0.000000000000000000, 1.000000000000000000, 0.000000000000000000 ) ) ;
#307 = ADVANCED_FACE ( 'PLANAR_4', ( #126 ), #322, .F. ) ;
#308 = CYLINDRICAL_SURFACE ( 'NONE', #339, 3.323500000000000121 ) ;
#309 =( NAMED_UNIT ( * ) PLANE_ANGLE_UNIT ( ) SI_UNIT ( $, .RADIAN. ) );
#310 = MANIFOLD_SOLID_BREP ( 'Body-Move/Copy1', #12 ) ;
#311 = VECTOR ( 'NONE', #22, 1000.000000000000000 ) ;
#312 = AXIS2_PLACEMENT_3D ( 'NONE', #282, #136, #111 ) ;
#313 = CARTESIAN_POINT ( 'NONE',  ( 0.000000000000000000, -4.000000000000000000, 0.000000000000000000 ) ) ;
#314 = EDGE_LOOP ( 'NONE', ( #215, #241, #16, #101 ) ) ;
#315 = ORIENTED_EDGE ( 'NONE', *, *, #206, .T. ) ;
#316 = DIRECTION ( 'NONE',  ( 0.000000000000000000, 0.000000000000000000, 1.000000000000000000 ) ) ;
#317 = VERTEX_POINT ( 'NONE', #128 ) ;
#318 = EDGE_CURVE ( 'NONE', #76, #79, #271, .T. ) ;
#319 = AXIS2_PLACEMENT_3D ( 'NONE', #143, #67, #258 ) ;
#320 = ORIENTED_EDGE ( 'NONE', *, *, #60, .T. ) ;
#321 = EDGE_LOOP ( 'NONE', ( #77, #344, #239, #47 ) ) ;
#322 = PLANE ( 'NONE',  #36 ) ;
#323 = CARTESIAN_POINT ( 'NONE',  ( -10.00000000000000000, 0.000000000000000000, 10.00000000000000000 ) ) ;
#324 = ADVANCED_FACE ( 'PLANAR_3', ( #15 ), #131, .F. ) ;
#325 = CARTESIAN_POINT ( 'NONE',  ( -10.00000000000000000, -4.000000000000000000, -10.00000000000000000 ) ) ;
#326 = DIRECTION ( 'NONE',  ( 0.000000000000000000, 0.000000000000000000, -1.000000000000000000 ) ) ;
#327 = FACE_OUTER_BOUND ( 'NONE', #293, .T. ) ;
#328 = CARTESIAN_POINT ( 'NONE',  ( -10.00000000000000000, -4.000000000000000000, 10.00000000000000000 ) ) ;
#329 = DIRECTION ( 'NONE',  ( 0.000000000000000000, 1.000000000000000000, -0.000000000000000000 ) ) ;
#330 = UNCERTAINTY_MEASURE_WITH_UNIT (LENGTH_MEASURE( 1.000000000000000082E-05 ), #205, 'distance_accuracy_value', 'NONE');
#331 = DIRECTION ( 'NONE',  ( 1.000000000000000000, 0.000000000000000000, 0.000000000000000000 ) ) ;
#332 = EDGE_CURVE ( 'NONE', #106, #290, #30, .T. ) ;
#333 = DIRECTION ( 'NONE',  ( 0.000000000000000000, 0.000000000000000000, 1.000000000000000000 ) ) ;
#334 = EDGE_CURVE ( 'NONE', #124, #79, #354, .T. ) ;
#335 = VERTEX_POINT ( 'NONE', #190 ) ;
#336 = AXIS2_PLACEMENT_3D ( 'NONE', #274, #21, #350 ) ;
#337 =( NAMED_UNIT ( * ) SI_UNIT ( $, .STERADIAN. ) SOLID_ANGLE_UNIT ( ) );
#338 = DIRECTION ( 'NONE',  ( 0.000000000000000000, 1.000000000000000000, 0.000000000000000000 ) ) ;
#339 = AXIS2_PLACEMENT_3D ( 'NONE', #59, #306, #83 ) ;
#340 = EDGE_CURVE ( 'NONE', #152, #211, #90, .T. ) ;
#341 = ORIENTED_EDGE ( 'NONE', *, *, #206, .F. ) ;
#342 = EDGE_LOOP ( 'NONE', ( #71, #265, #263, #10 ) ) ;
#343 = VERTEX_POINT ( 'NONE', #328 ) ;
#344 = ORIENTED_EDGE ( 'NONE', *, *, #340, .F. ) ;
#345 = EDGE_LOOP ( 'NONE', ( #267, #14, #299, #272 ) ) ;
#346 = DIRECTION ( 'NONE',  ( 0.000000000000000000, 0.000000000000000000, 1.000000000000000000 ) ) ;
#347 = PRODUCT ( '1.31.EM8', '1.31.EM8', '', ( #62 ) ) ;
#348 = ORIENTED_EDGE ( 'NONE', *, *, #231, .T. ) ;
#349 = DIRECTION ( 'NONE',  ( 0.000000000000000000, 1.000000000000000000, 0.000000000000000000 ) ) ;
#350 = DIRECTION ( 'NONE',  ( 0.000000000000000000, 0.000000000000000000, 1.000000000000000000 ) ) ;
#351 = FACE_OUTER_BOUND ( 'NONE', #96, .T. ) ;
#352 = FILL_AREA_STYLE_COLOUR ( '', #8 ) ;
#353 = CARTESIAN_POINT ( 'NONE',  ( 0.000000000000000000, -3.323500000000000121, 3.323500000000000121 ) ) ;
#354 = LINE ( 'NONE', #105, #244 ) ;
#355 = CIRCLE ( 'NONE', #40, 4.000000000000000000 ) ;
#356 = DIRECTION ( 'NONE',  ( 1.000000000000000000, 0.000000000000000000, 0.000000000000000000 ) ) ;
#357 = EDGE_CURVE ( 'NONE', #43, #343, #84, .T. ) ;
#358 = ADVANCED_FACE ( 'PLANAR_2', ( #294 ), #118, .F. ) ;
#359 = CARTESIAN_POINT ( 'NONE',  ( 0.000000000000000000, -4.000000000000000000, -4.000000000000000000 ) ) ;
#360 = APPLICATION_PROTOCOL_DEFINITION ( 'draft international standard', 'automotive_design', 1998, #129 ) ;
#361 = ORIENTED_EDGE ( 'NONE', *, *, #115, .F. ) ;
ENDSEC;
END-ISO-10303-21;
