ISO-10303-21;
HEADER;
FILE_DESCRIPTION (( 'STEP AP214' ),
    '1' );
FILE_NAME ('1.31.EM6.STEP',
    '2024-10-04T16:01:54',
    ( '' ),
    ( '' ),
    'SwSTEP 2.0',
    'SolidWorks 2024',
    '' );
FILE_SCHEMA (( 'AUTOMOTIVE_DESIGN' ));
ENDSEC;

DATA;
#1 = CIRCLE ( 'NONE', #193, 3.000000000000000000 ) ;
#2 = AXIS2_PLACEMENT_3D ( 'NONE', #163, #299, #273 ) ;
#3 = EDGE_CURVE ( 'NONE', #333, #75, #345, .T. ) ;
#4 = ORIENTED_EDGE ( 'NONE', *, *, #262, .T. ) ;
#5 = EDGE_LOOP ( 'NONE', ( #338, #263, #70, #237 ) ) ;
#6 = VERTEX_POINT ( 'NONE', #271 ) ;
#7 = DIRECTION ( 'NONE',  ( 0.000000000000000000, 0.000000000000000000, 1.000000000000000000 ) ) ;
#8 = DIRECTION ( 'NONE',  ( 0.000000000000000000, 1.000000000000000000, 0.000000000000000000 ) ) ;
#9 = ADVANCED_BREP_SHAPE_REPRESENTATION ( '1.31.EM6', ( #72, #2 ), #249 ) ;
#10 = LINE ( 'NONE', #175, #151 ) ;
#11 = ORIENTED_EDGE ( 'NONE', *, *, #358, .F. ) ;
#12 = CARTESIAN_POINT ( 'NONE',  ( 10.00000000000000000, 0.000000000000000000, 10.00000000000000000 ) ) ;
#13 = ORIENTED_EDGE ( 'NONE', *, *, #16, .F. ) ;
#14 = LINE ( 'NONE', #12, #90 ) ;
#15 = VERTEX_POINT ( 'NONE', #321 ) ;
#16 = EDGE_CURVE ( 'NONE', #333, #217, #219, .T. ) ;
#17 = DIRECTION ( 'NONE',  ( 0.000000000000000000, 0.000000000000000000, 1.000000000000000000 ) ) ;
#18 = CARTESIAN_POINT ( 'NONE',  ( 10.00000000000000000, -4.000000000000000000, 10.00000000000000000 ) ) ;
#19 = EDGE_CURVE ( 'NONE', #6, #258, #49, .T. ) ;
#20 = DIRECTION ( 'NONE',  ( 0.000000000000000000, 0.000000000000000000, 1.000000000000000000 ) ) ;
#21 = AXIS2_PLACEMENT_3D ( 'NONE', #214, #288, #156 ) ;
#22 = DIRECTION ( 'NONE',  ( 8.659560562354931626E-17, 0.7071067811865475727, -0.7071067811865474617 ) ) ;
#23 = LINE ( 'NONE', #117, #225 ) ;
#24 = CIRCLE ( 'NONE', #135, 2.458499999999999908 ) ;
#25 = CARTESIAN_POINT ( 'NONE',  ( 3.010794155703767171E-16, -3.458499999999999908, -2.458499999999999908 ) ) ;
#26 = APPLICATION_CONTEXT ( 'automotive_design' ) ;
#27 = ORIENTED_EDGE ( 'NONE', *, *, #286, .T. ) ;
#28 = ORIENTED_EDGE ( 'NONE', *, *, #69, .T. ) ;
#29 = PLANE ( 'NONE',  #168 ) ;
#30 = VECTOR ( 'NONE', #212, 1000.000000000000000 ) ;
#31 = DIRECTION ( 'NONE',  ( 1.000000000000000000, 0.000000000000000000, 0.000000000000000000 ) ) ;
#32 = ORIENTED_EDGE ( 'NONE', *, *, #207, .T. ) ;
#33 = ADVANCED_FACE ( 'PLANAR_2', ( #133 ), #297, .F. ) ;
#34 = FACE_OUTER_BOUND ( 'NONE', #182, .T. ) ;
#35 = APPLICATION_CONTEXT ( 'automotive_design' ) ;
#36 = ORIENTED_EDGE ( 'NONE', *, *, #42, .T. ) ;
#37 = DIRECTION ( 'NONE',  ( 0.000000000000000000, 0.000000000000000000, 1.000000000000000000 ) ) ;
#38 = VECTOR ( 'NONE', #178, 999.9999999999998863 ) ;
#39 = LINE ( 'NONE', #236, #38 ) ;
#40 = ORIENTED_EDGE ( 'NONE', *, *, #358, .T. ) ;
#41 = DIRECTION ( 'NONE',  ( 0.000000000000000000, 1.000000000000000000, 0.000000000000000000 ) ) ;
#42 = EDGE_CURVE ( 'NONE', #75, #260, #136, .T. ) ;
#43 = VERTEX_POINT ( 'NONE', #291 ) ;
#44 = DIRECTION ( 'NONE',  ( 0.000000000000000000, 0.000000000000000000, -1.000000000000000000 ) ) ;
#45 = AXIS2_PLACEMENT_3D ( 'NONE', #79, #192, #109 ) ;
#46 = AXIS2_PLACEMENT_3D ( 'NONE', #259, #8, #284 ) ;
#47 = LINE ( 'NONE', #18, #95 ) ;
#48 = EDGE_CURVE ( 'NONE', #256, #333, #317, .T. ) ;
#49 = LINE ( 'NONE', #83, #191 ) ;
#50 = PRODUCT_DEFINITION ( 'UNKNOWN', '', #344, #78 ) ;
#51 =( GEOMETRIC_REPRESENTATION_CONTEXT ( 3 ) GLOBAL_UNCERTAINTY_ASSIGNED_CONTEXT ( ( #290 ) ) GLOBAL_UNIT_ASSIGNED_CONTEXT ( ( #226, #142, #223 ) ) REPRESENTATION_CONTEXT ( 'NONE', 'WORKASPACE' ) );
#52 = CYLINDRICAL_SURFACE ( 'NONE', #66, 2.458499999999999908 ) ;
#53 = DIRECTION ( 'NONE',  ( 0.000000000000000000, 0.000000000000000000, 1.000000000000000000 ) ) ;
#54 = FACE_OUTER_BOUND ( 'NONE', #360, .T. ) ;
#55 = FACE_OUTER_BOUND ( 'NONE', #5, .T. ) ;
#56 = SHAPE_DEFINITION_REPRESENTATION ( #177, #9 ) ;
#57 = ORIENTED_EDGE ( 'NONE', *, *, #190, .F. ) ;
#58 = CYLINDRICAL_SURFACE ( 'NONE', #59, 2.458499999999999908 ) ;
#59 = AXIS2_PLACEMENT_3D ( 'NONE', #170, #68, #149 ) ;
#60 = EDGE_LOOP ( 'NONE', ( #312, #11, #28, #270 ) ) ;
#61 = EDGE_CURVE ( 'NONE', #205, #77, #47, .T. ) ;
#62 = CARTESIAN_POINT ( 'NONE',  ( -10.00000000000000000, 0.000000000000000000, 10.00000000000000000 ) ) ;
#63 = CARTESIAN_POINT ( 'NONE',  ( 3.673940397442059868E-16, -4.000000000000000000, 3.000000000000000000 ) ) ;
#64 = EDGE_LOOP ( 'NONE', ( #310, #73, #314, #252 ) ) ;
#65 = CARTESIAN_POINT ( 'NONE',  ( -10.00000000000000000, 0.000000000000000000, 10.00000000000000000 ) ) ;
#66 = AXIS2_PLACEMENT_3D ( 'NONE', #347, #166, #17 ) ;
#67 = EDGE_CURVE ( 'NONE', #106, #205, #355, .T. ) ;
#68 = DIRECTION ( 'NONE',  ( 0.000000000000000000, 1.000000000000000000, 0.000000000000000000 ) ) ;
#69 = EDGE_CURVE ( 'NONE', #346, #6, #353, .T. ) ;
#70 = ORIENTED_EDGE ( 'NONE', *, *, #67, .F. ) ;
#71 = FACE_OUTER_BOUND ( 'NONE', #242, .T. ) ;
#72 = MANIFOLD_SOLID_BREP ( 'Body-Move/Copy1', #116 ) ;
#73 = ORIENTED_EDGE ( 'NONE', *, *, #207, .F. ) ;
#74 = CARTESIAN_POINT ( 'NONE',  ( 10.00000000000000000, -4.000000000000000000, 10.00000000000000000 ) ) ;
#75 = VERTEX_POINT ( 'NONE', #62 ) ;
#76 = CARTESIAN_POINT ( 'NONE',  ( 10.00000000000000000, 0.000000000000000000, -10.00000000000000000 ) ) ;
#77 = VERTEX_POINT ( 'NONE', #92 ) ;
#78 = PRODUCT_DEFINITION_CONTEXT ( 'detailed design', #35, 'design' ) ;
#79 = CARTESIAN_POINT ( 'NONE',  ( 10.00000000000000000, 0.000000000000000000, -10.00000000000000000 ) ) ;
#80 = VECTOR ( 'NONE', #248, 1000.000000000000000 ) ;
#81 = ADVANCED_FACE ( 'CONE_1', ( #324 ), #139, .F. ) ;
#82 = CARTESIAN_POINT ( 'NONE',  ( -10.00000000000000000, 0.000000000000000000, -10.00000000000000000 ) ) ;
#83 = CARTESIAN_POINT ( 'NONE',  ( 0.000000000000000000, -0.5415000000000003144, 2.458499999999999908 ) ) ;
#84 = CONICAL_SURFACE ( 'NONE', #331, 3.000000000000000000, 0.7853981633974485010 ) ;
#85 = SURFACE_STYLE_FILL_AREA ( #326 ) ;
#86 = CARTESIAN_POINT ( 'NONE',  ( 0.000000000000000000, 0.000000000000000000, 0.000000000000000000 ) ) ;
#87 =( NAMED_UNIT ( * ) PLANE_ANGLE_UNIT ( ) SI_UNIT ( $, .RADIAN. ) );
#88 = DIRECTION ( 'NONE',  ( 0.000000000000000000, 0.000000000000000000, -1.000000000000000000 ) ) ;
#89 = CIRCLE ( 'NONE', #255, 3.000000000000000000 ) ;
#90 = VECTOR ( 'NONE', #307, 1000.000000000000000 ) ;
#91 = DIRECTION ( 'NONE',  ( 0.000000000000000000, 0.000000000000000000, 1.000000000000000000 ) ) ;
#92 = CARTESIAN_POINT ( 'NONE',  ( 10.00000000000000000, -4.000000000000000000, -10.00000000000000000 ) ) ;
#93 = ORIENTED_EDGE ( 'NONE', *, *, #244, .F. ) ;
#94 = CARTESIAN_POINT ( 'NONE',  ( 0.000000000000000000, -0.5415000000000003144, 0.000000000000000000 ) ) ;
#95 = VECTOR ( 'NONE', #44, 1000.000000000000000 ) ;
#96 = VECTOR ( 'NONE', #311, 1000.000000000000000 ) ;
#97 = ORIENTED_EDGE ( 'NONE', *, *, #42, .F. ) ;
#98 = CARTESIAN_POINT ( 'NONE',  ( 3.010794155703767171E-16, -4.000000000000000000, -2.458499999999999908 ) ) ;
#99 = LINE ( 'NONE', #98, #30 ) ;
#100 = ORIENTED_EDGE ( 'NONE', *, *, #262, .F. ) ;
#101 = ADVANCED_FACE ( 'PLANAR_1', ( #55, #303 ), #194, .F. ) ;
#102 = CARTESIAN_POINT ( 'NONE',  ( 0.000000000000000000, -4.000000000000000000, -3.000000000000000000 ) ) ;
#103 = VECTOR ( 'NONE', #283, 1000.000000000000000 ) ;
#104 = ORIENTED_EDGE ( 'NONE', *, *, #292, .T. ) ;
#105 = FACE_OUTER_BOUND ( 'NONE', #308, .T. ) ;
#106 = VERTEX_POINT ( 'NONE', #298 ) ;
#107 = UNCERTAINTY_MEASURE_WITH_UNIT (LENGTH_MEASURE( 1.000000000000000082E-05 ), #243, 'distance_accuracy_value', 'NONE');
#108 = CONICAL_SURFACE ( 'NONE', #352, 2.458499999999999908, 0.7853981633974482790 ) ;
#109 = DIRECTION ( 'NONE',  ( 1.000000000000000000, 0.000000000000000000, -0.000000000000000000 ) ) ;
#110 = CARTESIAN_POINT ( 'NONE',  ( 0.000000000000000000, -0.5415000000000003144, 0.000000000000000000 ) ) ;
#111 =( NAMED_UNIT ( * ) SI_UNIT ( $, .STERADIAN. ) SOLID_ANGLE_UNIT ( ) );
#112 = DIRECTION ( 'NONE',  ( 0.000000000000000000, 1.000000000000000000, 0.000000000000000000 ) ) ;
#113 = CARTESIAN_POINT ( 'NONE',  ( 0.000000000000000000, -3.458499999999999908, 2.458499999999999908 ) ) ;
#114 = EDGE_CURVE ( 'NONE', #15, #6, #122, .T. ) ;
#115 = FACE_OUTER_BOUND ( 'NONE', #64, .T. ) ;
#116 = CLOSED_SHELL ( 'NONE', ( #180, #354, #267, #253, #101, #33, #318, #305, #131, #210, #198, #81 ) ) ;
#117 = CARTESIAN_POINT ( 'NONE',  ( 10.00000000000000000, -4.000000000000000000, -10.00000000000000000 ) ) ;
#118 = VERTEX_POINT ( 'NONE', #63 ) ;
#119 = LINE ( 'NONE', #65, #176 ) ;
#120 = ORIENTED_EDGE ( 'NONE', *, *, #132, .T. ) ;
#121 = LINE ( 'NONE', #309, #96 ) ;
#122 = CIRCLE ( 'NONE', #320, 2.458499999999999908 ) ;
#123 = PLANE ( 'NONE',  #144 ) ;
#124 = ORIENTED_EDGE ( 'NONE', *, *, #169, .T. ) ;
#125 = CARTESIAN_POINT ( 'NONE',  ( 0.000000000000000000, 0.000000000000000000, 3.000000000000000000 ) ) ;
#126 = ORIENTED_EDGE ( 'NONE', *, *, #239, .F. ) ;
#127 = FACE_OUTER_BOUND ( 'NONE', #233, .T. ) ;
#128 = AXIS2_PLACEMENT_3D ( 'NONE', #94, #336, #240 ) ;
#129 = EDGE_LOOP ( 'NONE', ( #27, #265 ) ) ;
#130 = APPLICATION_PROTOCOL_DEFINITION ( 'draft international standard', 'automotive_design', 1998, #35 ) ;
#131 = ADVANCED_FACE ( 'PLANAR_5', ( #115 ), #29, .F. ) ;
#132 = EDGE_CURVE ( 'NONE', #15, #157, #174, .T. ) ;
#133 = FACE_OUTER_BOUND ( 'NONE', #235, .T. ) ;
#134 = PRESENTATION_LAYER_ASSIGNMENT (  '', '', ( #335 ) ) ;
#135 = AXIS2_PLACEMENT_3D ( 'NONE', #110, #112, #200 ) ;
#136 = LINE ( 'NONE', #295, #238 ) ;
#137 = DIRECTION ( 'NONE',  ( -0.000000000000000000, -1.000000000000000000, -0.000000000000000000 ) ) ;
#138 = VECTOR ( 'NONE', #20, 1000.000000000000000 ) ;
#139 = CONICAL_SURFACE ( 'NONE', #323, 3.000000000000000000, 0.7853981633974485010 ) ;
#140 = EDGE_CURVE ( 'NONE', #118, #43, #89, .T. ) ;
#141 = SURFACE_SIDE_STYLE ('',( #85 ) ) ;
#142 =( NAMED_UNIT ( * ) PLANE_ANGLE_UNIT ( ) SI_UNIT ( $, .RADIAN. ) );
#143 = DIRECTION ( 'NONE',  ( 0.000000000000000000, 0.000000000000000000, 1.000000000000000000 ) ) ;
#144 = AXIS2_PLACEMENT_3D ( 'NONE', #206, #285, #37 ) ;
#145 = ORIENTED_EDGE ( 'NONE', *, *, #3, .T. ) ;
#146 = ORIENTED_EDGE ( 'NONE', *, *, #286, .F. ) ;
#147 = DIRECTION ( 'NONE',  ( 0.000000000000000000, 0.000000000000000000, -1.000000000000000000 ) ) ;
#148 = ORIENTED_EDGE ( 'NONE', *, *, #239, .T. ) ;
#149 = DIRECTION ( 'NONE',  ( 0.000000000000000000, 0.000000000000000000, 1.000000000000000000 ) ) ;
#150 = DIRECTION ( 'NONE',  ( 0.000000000000000000, -0.7071067811865473507, -0.7071067811865477948 ) ) ;
#151 = VECTOR ( 'NONE', #7, 1000.000000000000000 ) ;
#152 = CIRCLE ( 'NONE', #241, 3.000000000000000000 ) ;
#153 = ORIENTED_EDGE ( 'NONE', *, *, #3, .F. ) ;
#154 = CARTESIAN_POINT ( 'NONE',  ( 0.000000000000000000, 0.000000000000000000, 0.000000000000000000 ) ) ;
#155 = ORIENTED_EDGE ( 'NONE', *, *, #140, .F. ) ;
#156 = DIRECTION ( 'NONE',  ( -1.000000000000000000, 0.000000000000000000, -0.000000000000000000 ) ) ;
#157 = VERTEX_POINT ( 'NONE', #361 ) ;
#158 = ORIENTED_EDGE ( 'NONE', *, *, #48, .F. ) ;
#159 = DIRECTION ( 'NONE',  ( -0.000000000000000000, -1.000000000000000000, -0.000000000000000000 ) ) ;
#160 = CARTESIAN_POINT ( 'NONE',  ( 0.000000000000000000, -4.000000000000000000, 2.458499999999999908 ) ) ;
#161 = AXIS2_PLACEMENT_3D ( 'NONE', #154, #41, #264 ) ;
#162 = DIRECTION ( 'NONE',  ( -1.000000000000000000, 0.000000000000000000, 0.000000000000000000 ) ) ;
#163 = CARTESIAN_POINT ( 'NONE',  ( 0.000000000000000000, 0.000000000000000000, 0.000000000000000000 ) ) ;
#164 = PRESENTATION_STYLE_ASSIGNMENT (( #278 ) ) ;
#165 = CARTESIAN_POINT ( 'NONE',  ( 0.000000000000000000, -0.5415000000000003144, 0.000000000000000000 ) ) ;
#166 = DIRECTION ( 'NONE',  ( 0.000000000000000000, 1.000000000000000000, 0.000000000000000000 ) ) ;
#167 = ORIENTED_EDGE ( 'NONE', *, *, #296, .T. ) ;
#168 = AXIS2_PLACEMENT_3D ( 'NONE', #254, #196, #330 ) ;
#169 = EDGE_CURVE ( 'NONE', #77, #217, #23, .T. ) ;
#170 = CARTESIAN_POINT ( 'NONE',  ( 0.000000000000000000, -4.000000000000000000, 0.000000000000000000 ) ) ;
#171 = ORIENTED_EDGE ( 'NONE', *, *, #224, .T. ) ;
#172 = ORIENTED_EDGE ( 'NONE', *, *, #195, .F. ) ;
#173 = DIRECTION ( 'NONE',  ( 0.000000000000000000, 1.000000000000000000, 0.000000000000000000 ) ) ;
#174 = LINE ( 'NONE', #203, #201 ) ;
#175 = CARTESIAN_POINT ( 'NONE',  ( -10.00000000000000000, -4.000000000000000000, -10.00000000000000000 ) ) ;
#176 = VECTOR ( 'NONE', #234, 1000.000000000000000 ) ;
#177 = PRODUCT_DEFINITION_SHAPE ( 'NONE', 'NONE',  #50 ) ;
#178 = DIRECTION ( 'NONE',  ( 8.659560562354936556E-17, -0.7071067811865473507, 0.7071067811865477948 ) ) ;
#179 = ORIENTED_EDGE ( 'NONE', *, *, #274, .F. ) ;
#180 = ADVANCED_FACE ( 'CONE_1', ( #246 ), #84, .F. ) ;
#181 = CARTESIAN_POINT ( 'NONE',  ( -10.00000000000000000, -4.000000000000000000, -10.00000000000000000 ) ) ;
#182 = EDGE_LOOP ( 'NONE', ( #316, #57, #213, #329 ) ) ;
#183 = CARTESIAN_POINT ( 'NONE',  ( 0.000000000000000000, -0.5415000000000003144, 0.000000000000000000 ) ) ;
#184 = CONICAL_SURFACE ( 'NONE', #128, 2.458499999999999908, 0.7853981633974482790 ) ;
#185 = ORIENTED_EDGE ( 'NONE', *, *, #16, .T. ) ;
#186 = CARTESIAN_POINT ( 'NONE',  ( 10.00000000000000000, 0.000000000000000000, 10.00000000000000000 ) ) ;
#187 = EDGE_LOOP ( 'NONE', ( #171, #4, #146, #126 ) ) ;
#188 = ORIENTED_EDGE ( 'NONE', *, *, #19, .F. ) ;
#189 = VECTOR ( 'NONE', #350, 1000.000000000000000 ) ;
#190 = EDGE_CURVE ( 'NONE', #6, #15, #24, .T. ) ;
#191 = VECTOR ( 'NONE', #315, 1000.000000000000000 ) ;
#192 = DIRECTION ( 'NONE',  ( 0.000000000000000000, -0.000000000000000000, 1.000000000000000000 ) ) ;
#193 = AXIS2_PLACEMENT_3D ( 'NONE', #266, #337, #269 ) ;
#194 = PLANE ( 'NONE',  #351 ) ;
#195 = EDGE_CURVE ( 'NONE', #157, #258, #152, .T. ) ;
#196 = DIRECTION ( 'NONE',  ( -1.000000000000000000, 0.000000000000000000, 0.000000000000000000 ) ) ;
#197 = PRODUCT_CONTEXT ( 'NONE', #26, 'mechanical' ) ;
#198 = ADVANCED_FACE ( 'CYL_0', ( #300 ), #58, .F. ) ;
#199 = ORIENTED_EDGE ( 'NONE', *, *, #195, .T. ) ;
#200 = DIRECTION ( 'NONE',  ( 0.000000000000000000, 0.000000000000000000, 1.000000000000000000 ) ) ;
#201 = VECTOR ( 'NONE', #22, 1000.000000000000000 ) ;
#202 = CIRCLE ( 'NONE', #46, 2.458499999999999908 ) ;
#203 = CARTESIAN_POINT ( 'NONE',  ( 3.010794155703767171E-16, -0.5415000000000003144, -2.458499999999999908 ) ) ;
#204 = CARTESIAN_POINT ( 'NONE',  ( 0.000000000000000000, -4.000000000000000000, 0.000000000000000000 ) ) ;
#205 = VERTEX_POINT ( 'NONE', #74 ) ;
#206 = CARTESIAN_POINT ( 'NONE',  ( -10.00000000000000000, 0.000000000000000000, -10.00000000000000000 ) ) ;
#207 = EDGE_CURVE ( 'NONE', #256, #77, #313, .T. ) ;
#208 = ORIENTED_EDGE ( 'NONE', *, *, #114, .T. ) ;
#209 = PLANE ( 'NONE',  #21 ) ;
#210 = ADVANCED_FACE ( 'CONE_0', ( #34 ), #108, .F. ) ;
#211 = ORIENTED_EDGE ( 'NONE', *, *, #277, .T. ) ;
#212 = DIRECTION ( 'NONE',  ( 0.000000000000000000, 1.000000000000000000, 0.000000000000000000 ) ) ;
#213 = ORIENTED_EDGE ( 'NONE', *, *, #19, .T. ) ;
#214 = CARTESIAN_POINT ( 'NONE',  ( -10.00000000000000000, 0.000000000000000000, 10.00000000000000000 ) ) ;
#215 = EDGE_LOOP ( 'NONE', ( #179, #172 ) ) ;
#216 = DIRECTION ( 'NONE',  ( 0.000000000000000000, 1.000000000000000000, 0.000000000000000000 ) ) ;
#217 = VERTEX_POINT ( 'NONE', #181 ) ;
#218 = EDGE_CURVE ( 'NONE', #217, #106, #10, .T. ) ;
#219 = LINE ( 'NONE', #294, #340 ) ;
#220 = CIRCLE ( 'NONE', #306, 2.458499999999999908 ) ;
#221 = CARTESIAN_POINT ( 'NONE',  ( 0.000000000000000000, -4.000000000000000000, 0.000000000000000000 ) ) ;
#222 = DIRECTION ( 'NONE',  ( 0.000000000000000000, 0.000000000000000000, 1.000000000000000000 ) ) ;
#223 =( NAMED_UNIT ( * ) SI_UNIT ( $, .STERADIAN. ) SOLID_ANGLE_UNIT ( ) );
#224 = EDGE_CURVE ( 'NONE', #341, #346, #202, .T. ) ;
#225 = VECTOR ( 'NONE', #279, 1000.000000000000000 ) ;
#226 =( LENGTH_UNIT ( ) NAMED_UNIT ( * ) SI_UNIT ( .MILLI., .METRE. ) );
#227 = ORIENTED_EDGE ( 'NONE', *, *, #277, .F. ) ;
#228 = CARTESIAN_POINT ( 'NONE',  ( -10.00000000000000000, 0.000000000000000000, -10.00000000000000000 ) ) ;
#229 = ORIENTED_EDGE ( 'NONE', *, *, #224, .F. ) ;
#230 = FACE_BOUND ( 'NONE', #215, .T. ) ;
#231 = VECTOR ( 'NONE', #150, 999.9999999999998863 ) ;
#232 = PRODUCT ( '1.31.EM6', '1.31.EM6', '', ( #197 ) ) ;
#233 = EDGE_LOOP ( 'NONE', ( #289, #227, #153, #185 ) ) ;
#234 = DIRECTION ( 'NONE',  ( -0.000000000000000000, -1.000000000000000000, -0.000000000000000000 ) ) ;
#235 = EDGE_LOOP ( 'NONE', ( #124, #13, #158, #32 ) ) ;
#236 = CARTESIAN_POINT ( 'NONE',  ( 3.673940397442059868E-16, -4.000000000000000000, 3.000000000000000000 ) ) ;
#237 = ORIENTED_EDGE ( 'NONE', *, *, #218, .F. ) ;
#238 = VECTOR ( 'NONE', #272, 1000.000000000000000 ) ;
#239 = EDGE_CURVE ( 'NONE', #341, #43, #339, .T. ) ;
#240 = DIRECTION ( 'NONE',  ( 0.000000000000000000, 0.000000000000000000, 1.000000000000000000 ) ) ;
#241 = AXIS2_PLACEMENT_3D ( 'NONE', #86, #359, #222 ) ;
#242 = EDGE_LOOP ( 'NONE', ( #280, #120, #199, #188 ) ) ;
#243 =( LENGTH_UNIT ( ) NAMED_UNIT ( * ) SI_UNIT ( .MILLI., .METRE. ) );
#244 = EDGE_CURVE ( 'NONE', #260, #205, #121, .T. ) ;
#245 = CARTESIAN_POINT ( 'NONE',  ( -10.00000000000000000, -4.000000000000000000, 10.00000000000000000 ) ) ;
#246 = FACE_OUTER_BOUND ( 'NONE', #187, .T. ) ;
#247 = VECTOR ( 'NONE', #162, 1000.000000000000000 ) ;
#248 = DIRECTION ( 'NONE',  ( 0.000000000000000000, 1.000000000000000000, 0.000000000000000000 ) ) ;
#249 =( GEOMETRIC_REPRESENTATION_CONTEXT ( 3 ) GLOBAL_UNCERTAINTY_ASSIGNED_CONTEXT ( ( #107 ) ) GLOBAL_UNIT_ASSIGNED_CONTEXT ( ( #243, #87, #111 ) ) REPRESENTATION_CONTEXT ( 'NONE', 'WORKASPACE' ) );
#250 = DIRECTION ( 'NONE',  ( 0.000000000000000000, 1.000000000000000000, 0.000000000000000000 ) ) ;
#251 = CARTESIAN_POINT ( 'NONE',  ( 0.000000000000000000, -3.458499999999999908, 0.000000000000000000 ) ) ;
#252 = ORIENTED_EDGE ( 'NONE', *, *, #244, .T. ) ;
#253 = ADVANCED_FACE ( 'PLANAR_0', ( #334, #230 ), #123, .T. ) ;
#254 = CARTESIAN_POINT ( 'NONE',  ( 10.00000000000000000, 0.000000000000000000, 10.00000000000000000 ) ) ;
#255 = AXIS2_PLACEMENT_3D ( 'NONE', #221, #173, #143 ) ;
#256 = VERTEX_POINT ( 'NONE', #342 ) ;
#257 = EDGE_LOOP ( 'NONE', ( #100, #40, #148, #155 ) ) ;
#258 = VERTEX_POINT ( 'NONE', #125 ) ;
#259 = CARTESIAN_POINT ( 'NONE',  ( 0.000000000000000000, -3.458499999999999908, 0.000000000000000000 ) ) ;
#260 = VERTEX_POINT ( 'NONE', #186 ) ;
#261 = DIRECTION ( 'NONE',  ( 0.000000000000000000, 0.000000000000000000, 1.000000000000000000 ) ) ;
#262 = EDGE_CURVE ( 'NONE', #346, #118, #39, .T. ) ;
#263 = ORIENTED_EDGE ( 'NONE', *, *, #61, .F. ) ;
#264 = DIRECTION ( 'NONE',  ( 0.000000000000000000, 0.000000000000000000, 1.000000000000000000 ) ) ;
#265 = ORIENTED_EDGE ( 'NONE', *, *, #140, .T. ) ;
#266 = CARTESIAN_POINT ( 'NONE',  ( 0.000000000000000000, -4.000000000000000000, 0.000000000000000000 ) ) ;
#267 = ADVANCED_FACE ( 'CONE_0', ( #71 ), #184, .F. ) ;
#268 = ORIENTED_EDGE ( 'NONE', *, *, #67, .T. ) ;
#269 = DIRECTION ( 'NONE',  ( 0.000000000000000000, 0.000000000000000000, 1.000000000000000000 ) ) ;
#270 = ORIENTED_EDGE ( 'NONE', *, *, #190, .T. ) ;
#271 = CARTESIAN_POINT ( 'NONE',  ( 0.000000000000000000, -0.5415000000000003144, 2.458499999999999908 ) ) ;
#272 = DIRECTION ( 'NONE',  ( 1.000000000000000000, 0.000000000000000000, 0.000000000000000000 ) ) ;
#273 = DIRECTION ( 'NONE',  ( 1.000000000000000000, 0.000000000000000000, 0.000000000000000000 ) ) ;
#274 = EDGE_CURVE ( 'NONE', #258, #157, #343, .T. ) ;
#275 = DIRECTION ( 'NONE',  ( 0.000000000000000000, 0.000000000000000000, -1.000000000000000000 ) ) ;
#276 = DIRECTION ( 'NONE',  ( 0.000000000000000000, 1.000000000000000000, -0.000000000000000000 ) ) ;
#277 = EDGE_CURVE ( 'NONE', #75, #106, #119, .T. ) ;
#278 = SURFACE_STYLE_USAGE ( .BOTH. , #141 ) ;
#279 = DIRECTION ( 'NONE',  ( -1.000000000000000000, 0.000000000000000000, 0.000000000000000000 ) ) ;
#280 = ORIENTED_EDGE ( 'NONE', *, *, #114, .F. ) ;
#281 = AXIS2_PLACEMENT_3D ( 'NONE', #228, #31, #147 ) ;
#282 = PLANE ( 'NONE',  #281 ) ;
#283 = DIRECTION ( 'NONE',  ( -0.000000000000000000, -1.000000000000000000, -0.000000000000000000 ) ) ;
#284 = DIRECTION ( 'NONE',  ( 0.000000000000000000, 0.000000000000000000, 1.000000000000000000 ) ) ;
#285 = DIRECTION ( 'NONE',  ( 0.000000000000000000, 1.000000000000000000, -0.000000000000000000 ) ) ;
#286 = EDGE_CURVE ( 'NONE', #43, #118, #1, .T. ) ;
#287 = EDGE_LOOP ( 'NONE', ( #304, #145, #36, #167 ) ) ;
#288 = DIRECTION ( 'NONE',  ( 0.000000000000000000, 0.000000000000000000, -1.000000000000000000 ) ) ;
#289 = ORIENTED_EDGE ( 'NONE', *, *, #218, .T. ) ;
#290 = UNCERTAINTY_MEASURE_WITH_UNIT (LENGTH_MEASURE( 1.000000000000000082E-05 ), #226, 'distance_accuracy_value', 'NONE');
#291 = CARTESIAN_POINT ( 'NONE',  ( 0.000000000000000000, -4.000000000000000000, -3.000000000000000000 ) ) ;
#292 = EDGE_CURVE ( 'NONE', #341, #15, #99, .T. ) ;
#293 = PRODUCT_RELATED_PRODUCT_CATEGORY ( 'part', '', ( #232 ) ) ;
#294 = CARTESIAN_POINT ( 'NONE',  ( -10.00000000000000000, 0.000000000000000000, -10.00000000000000000 ) ) ;
#295 = CARTESIAN_POINT ( 'NONE',  ( -10.00000000000000000, 0.000000000000000000, 10.00000000000000000 ) ) ;
#296 = EDGE_CURVE ( 'NONE', #260, #256, #14, .T. ) ;
#297 = PLANE ( 'NONE',  #45 ) ;
#298 = CARTESIAN_POINT ( 'NONE',  ( -10.00000000000000000, -4.000000000000000000, 10.00000000000000000 ) ) ;
#299 = DIRECTION ( 'NONE',  ( 0.000000000000000000, 0.000000000000000000, 1.000000000000000000 ) ) ;
#300 = FACE_OUTER_BOUND ( 'NONE', #60, .T. ) ;
#301 = MECHANICAL_DESIGN_GEOMETRIC_PRESENTATION_REPRESENTATION (  '', ( #335 ), #51 ) ;
#302 = FILL_AREA_STYLE_COLOUR ( '', #319 ) ;
#303 = FACE_BOUND ( 'NONE', #129, .T. ) ;
#304 = ORIENTED_EDGE ( 'NONE', *, *, #48, .T. ) ;
#305 = ADVANCED_FACE ( 'PLANAR_4', ( #105 ), #209, .F. ) ;
#306 = AXIS2_PLACEMENT_3D ( 'NONE', #251, #325, #322 ) ;
#307 = DIRECTION ( 'NONE',  ( 0.000000000000000000, 0.000000000000000000, -1.000000000000000000 ) ) ;
#308 = EDGE_LOOP ( 'NONE', ( #268, #93, #97, #211 ) ) ;
#309 = CARTESIAN_POINT ( 'NONE',  ( 10.00000000000000000, 0.000000000000000000, 10.00000000000000000 ) ) ;
#310 = ORIENTED_EDGE ( 'NONE', *, *, #61, .T. ) ;
#311 = DIRECTION ( 'NONE',  ( -0.000000000000000000, -1.000000000000000000, -0.000000000000000000 ) ) ;
#312 = ORIENTED_EDGE ( 'NONE', *, *, #292, .F. ) ;
#313 = LINE ( 'NONE', #76, #103 ) ;
#314 = ORIENTED_EDGE ( 'NONE', *, *, #296, .F. ) ;
#315 = DIRECTION ( 'NONE',  ( 0.000000000000000000, 0.7071067811865475727, 0.7071067811865474617 ) ) ;
#316 = ORIENTED_EDGE ( 'NONE', *, *, #132, .F. ) ;
#317 = LINE ( 'NONE', #348, #247 ) ;
#318 = ADVANCED_FACE ( 'PLANAR_3', ( #127 ), #282, .F. ) ;
#319 = COLOUR_RGB ( '',0.7921568627450980005, 0.8196078431372548767, 0.9333333333333333481 ) ;
#320 = AXIS2_PLACEMENT_3D ( 'NONE', #165, #250, #91 ) ;
#321 = CARTESIAN_POINT ( 'NONE',  ( 3.342367276572913520E-16, -0.5415000000000003144, -2.458499999999999908 ) ) ;
#322 = DIRECTION ( 'NONE',  ( 0.000000000000000000, 0.000000000000000000, 1.000000000000000000 ) ) ;
#323 = AXIS2_PLACEMENT_3D ( 'NONE', #204, #328, #275 ) ;
#324 = FACE_OUTER_BOUND ( 'NONE', #257, .T. ) ;
#325 = DIRECTION ( 'NONE',  ( 0.000000000000000000, 1.000000000000000000, 0.000000000000000000 ) ) ;
#326 = FILL_AREA_STYLE ('',( #302 ) ) ;
#327 = APPLICATION_PROTOCOL_DEFINITION ( 'draft international standard', 'automotive_design', 1998, #26 ) ;
#328 = DIRECTION ( 'NONE',  ( -0.000000000000000000, -1.000000000000000000, -0.000000000000000000 ) ) ;
#329 = ORIENTED_EDGE ( 'NONE', *, *, #274, .T. ) ;
#330 = DIRECTION ( 'NONE',  ( 0.000000000000000000, 0.000000000000000000, 1.000000000000000000 ) ) ;
#331 = AXIS2_PLACEMENT_3D ( 'NONE', #356, #137, #88 ) ;
#332 = ORIENTED_EDGE ( 'NONE', *, *, #69, .F. ) ;
#333 = VERTEX_POINT ( 'NONE', #349 ) ;
#334 = FACE_OUTER_BOUND ( 'NONE', #287, .T. ) ;
#335 = STYLED_ITEM ( 'NONE', ( #164 ), #72 ) ;
#336 = DIRECTION ( 'NONE',  ( 0.000000000000000000, 1.000000000000000000, 0.000000000000000000 ) ) ;
#337 = DIRECTION ( 'NONE',  ( 0.000000000000000000, 1.000000000000000000, 0.000000000000000000 ) ) ;
#338 = ORIENTED_EDGE ( 'NONE', *, *, #169, .F. ) ;
#339 = LINE ( 'NONE', #102, #231 ) ;
#340 = VECTOR ( 'NONE', #159, 1000.000000000000000 ) ;
#341 = VERTEX_POINT ( 'NONE', #25 ) ;
#342 = CARTESIAN_POINT ( 'NONE',  ( 10.00000000000000000, 0.000000000000000000, -10.00000000000000000 ) ) ;
#343 = CIRCLE ( 'NONE', #161, 3.000000000000000000 ) ;
#344 = PRODUCT_DEFINITION_FORMATION_WITH_SPECIFIED_SOURCE ( 'ANY', '', #232, .NOT_KNOWN. ) ;
#345 = LINE ( 'NONE', #82, #138 ) ;
#346 = VERTEX_POINT ( 'NONE', #113 ) ;
#347 = CARTESIAN_POINT ( 'NONE',  ( 0.000000000000000000, -4.000000000000000000, 0.000000000000000000 ) ) ;
#348 = CARTESIAN_POINT ( 'NONE',  ( 10.00000000000000000, 0.000000000000000000, -10.00000000000000000 ) ) ;
#349 = CARTESIAN_POINT ( 'NONE',  ( -10.00000000000000000, 0.000000000000000000, -10.00000000000000000 ) ) ;
#350 = DIRECTION ( 'NONE',  ( 1.000000000000000000, 0.000000000000000000, 0.000000000000000000 ) ) ;
#351 = AXIS2_PLACEMENT_3D ( 'NONE', #357, #276, #53 ) ;
#352 = AXIS2_PLACEMENT_3D ( 'NONE', #183, #216, #261 ) ;
#353 = LINE ( 'NONE', #160, #80 ) ;
#354 = ADVANCED_FACE ( 'CYL_0', ( #54 ), #52, .F. ) ;
#355 = LINE ( 'NONE', #245, #189 ) ;
#356 = CARTESIAN_POINT ( 'NONE',  ( 0.000000000000000000, -4.000000000000000000, 0.000000000000000000 ) ) ;
#357 = CARTESIAN_POINT ( 'NONE',  ( -10.00000000000000000, -4.000000000000000000, -10.00000000000000000 ) ) ;
#358 = EDGE_CURVE ( 'NONE', #346, #341, #220, .T. ) ;
#359 = DIRECTION ( 'NONE',  ( 0.000000000000000000, 1.000000000000000000, 0.000000000000000000 ) ) ;
#360 = EDGE_LOOP ( 'NONE', ( #229, #104, #208, #332 ) ) ;
#361 = CARTESIAN_POINT ( 'NONE',  ( 3.673940397442059375E-16, 0.000000000000000000, -3.000000000000000000 ) ) ;
ENDSEC;
END-ISO-10303-21;
