ISO-10303-21;
HEADER;
FILE_DESCRIPTION (( 'STEP AP214' ),
    '1' );
FILE_NAME ('1.31.EM5.STEP',
    '2024-10-04T16:01:19',
    ( '' ),
    ( '' ),
    'SwSTEP 2.0',
    'SolidWorks 2024',
    '' );
FILE_SCHEMA (( 'AUTOMOTIVE_DESIGN' ));
ENDSEC;

DATA;
#1 = COLOUR_RGB ( '',0.7921568627450980005, 0.8196078431372548767, 0.9333333333333333481 ) ;
#2 = EDGE_CURVE ( 'NONE', #86, #286, #92, .T. ) ;
#3 = CARTESIAN_POINT ( 'NONE',  ( 0.000000000000000000, 0.000000000000000000, 0.000000000000000000 ) ) ;
#4 = CARTESIAN_POINT ( 'NONE',  ( 3.061616997868383141E-16, 5.421010862427522170E-17, -2.500000000000000000 ) ) ;
#5 = ORIENTED_EDGE ( 'NONE', *, *, #164, .F. ) ;
#6 = PLANE ( 'NONE',  #193 ) ;
#7 = ORIENTED_EDGE ( 'NONE', *, *, #91, .T. ) ;
#8 = CARTESIAN_POINT ( 'NONE',  ( 0.000000000000000000, -3.567000000000000171, 2.067000000000000171 ) ) ;
#9 = VECTOR ( 'NONE', #11, 1000.000000000000000 ) ;
#10 = DIRECTION ( 'NONE',  ( 1.000000000000000000, 0.000000000000000000, -0.000000000000000000 ) ) ;
#11 = DIRECTION ( 'NONE',  ( -1.000000000000000000, 0.000000000000000000, 0.000000000000000000 ) ) ;
#12 = DIRECTION ( 'NONE',  ( 0.000000000000000000, 0.000000000000000000, 1.000000000000000000 ) ) ;
#13 = EDGE_CURVE ( 'NONE', #55, #310, #103, .T. ) ;
#14 = AXIS2_PLACEMENT_3D ( 'NONE', #163, #205, #12 ) ;
#15 = ADVANCED_BREP_SHAPE_REPRESENTATION ( '1.31.EM5', ( #305, #204 ), #226 ) ;
#16 = DIRECTION ( 'NONE',  ( -1.000000000000000000, 0.000000000000000000, 0.000000000000000000 ) ) ;
#17 = DIRECTION ( 'NONE',  ( 0.000000000000000000, 1.000000000000000000, -0.000000000000000000 ) ) ;
#18 = DIRECTION ( 'NONE',  ( 0.000000000000000000, -0.7071067811865475727, -0.7071067811865474617 ) ) ;
#19 = ORIENTED_EDGE ( 'NONE', *, *, #313, .T. ) ;
#20 = VECTOR ( 'NONE', #354, 1000.000000000000000 ) ;
#21 = VECTOR ( 'NONE', #278, 1000.000000000000000 ) ;
#22 = FACE_OUTER_BOUND ( 'NONE', #211, .T. ) ;
#23 = EDGE_LOOP ( 'NONE', ( #304, #218 ) ) ;
#24 = APPLICATION_CONTEXT ( 'automotive_design' ) ;
#25 = LINE ( 'NONE', #160, #20 ) ;
#26 = ORIENTED_EDGE ( 'NONE', *, *, #151, .T. ) ;
#27 = FACE_OUTER_BOUND ( 'NONE', #338, .T. ) ;
#28 = LINE ( 'NONE', #334, #170 ) ;
#29 =( NAMED_UNIT ( * ) PLANE_ANGLE_UNIT ( ) SI_UNIT ( $, .RADIAN. ) );
#30 = CARTESIAN_POINT ( 'NONE',  ( -10.00000000000000000, -4.000000000000000000, -10.00000000000000000 ) ) ;
#31 = ORIENTED_EDGE ( 'NONE', *, *, #260, .F. ) ;
#32 = VECTOR ( 'NONE', #18, 1000.000000000000000 ) ;
#33 = ORIENTED_EDGE ( 'NONE', *, *, #210, .T. ) ;
#34 = CARTESIAN_POINT ( 'NONE',  ( 0.000000000000000000, 5.421010862427522170E-17, 2.500000000000000000 ) ) ;
#35 = EDGE_CURVE ( 'NONE', #243, #332, #28, .T. ) ;
#36 = CARTESIAN_POINT ( 'NONE',  ( 2.796480965852981451E-16, -0.4329999999999997740, -2.067000000000000171 ) ) ;
#37 = VECTOR ( 'NONE', #172, 1000.000000000000000 ) ;
#38 = CARTESIAN_POINT ( 'NONE',  ( -10.00000000000000000, 0.000000000000000000, -10.00000000000000000 ) ) ;
#39 = AXIS2_PLACEMENT_3D ( 'NONE', #285, #134, #111 ) ;
#40 = LINE ( 'NONE', #345, #291 ) ;
#41 = LINE ( 'NONE', #148, #199 ) ;
#42 = CARTESIAN_POINT ( 'NONE',  ( 3.061616997868383141E-16, -4.000000000000000000, 2.500000000000000000 ) ) ;
#43 = AXIS2_PLACEMENT_3D ( 'NONE', #76, #322, #98 ) ;
#44 = PRODUCT_DEFINITION_CONTEXT ( 'detailed design', #294, 'design' ) ;
#45 = CARTESIAN_POINT ( 'NONE',  ( 0.000000000000000000, -4.000000000000000000, -2.500000000000000000 ) ) ;
#46 = PLANE ( 'NONE',  #225 ) ;
#47 = EDGE_LOOP ( 'NONE', ( #262, #288, #88, #167 ) ) ;
#48 = FILL_AREA_STYLE_COLOUR ( '', #1 ) ;
#49 = ORIENTED_EDGE ( 'NONE', *, *, #341, .T. ) ;
#50 = AXIS2_PLACEMENT_3D ( 'NONE', #212, #324, #96 ) ;
#51 = ADVANCED_FACE ( 'CONE_1', ( #339 ), #132, .F. ) ;
#52 = ORIENTED_EDGE ( 'NONE', *, *, #352, .T. ) ;
#53 = EDGE_LOOP ( 'NONE', ( #142, #33, #49, #97 ) ) ;
#54 = CARTESIAN_POINT ( 'NONE',  ( 0.000000000000000000, -4.000000000000000000, 2.067000000000000171 ) ) ;
#55 = VERTEX_POINT ( 'NONE', #34 ) ;
#56 = EDGE_CURVE ( 'NONE', #332, #201, #112, .T. ) ;
#57 = ORIENTED_EDGE ( 'NONE', *, *, #91, .F. ) ;
#58 = CARTESIAN_POINT ( 'NONE',  ( 3.061616997868383141E-16, -4.000000000000000000, 2.500000000000000000 ) ) ;
#59 = ORIENTED_EDGE ( 'NONE', *, *, #341, .F. ) ;
#60 = VECTOR ( 'NONE', #93, 1000.000000000000000 ) ;
#61 = ADVANCED_FACE ( 'CONE_0', ( #316 ), #87, .F. ) ;
#62 = DIRECTION ( 'NONE',  ( -0.000000000000000000, -1.000000000000000000, -0.000000000000000000 ) ) ;
#63 = PRODUCT_DEFINITION ( 'UNKNOWN', '', #257, #44 ) ;
#64 = CARTESIAN_POINT ( 'NONE',  ( 10.00000000000000000, 0.000000000000000000, -10.00000000000000000 ) ) ;
#65 = UNCERTAINTY_MEASURE_WITH_UNIT (LENGTH_MEASURE( 1.000000000000000082E-05 ), #258, 'distance_accuracy_value', 'NONE');
#66 = DIRECTION ( 'NONE',  ( 0.000000000000000000, 1.000000000000000000, 0.000000000000000000 ) ) ;
#67 = CARTESIAN_POINT ( 'NONE',  ( 10.00000000000000000, -4.000000000000000000, -10.00000000000000000 ) ) ;
#68 = EDGE_CURVE ( 'NONE', #198, #100, #185, .T. ) ;
#69 = DIRECTION ( 'NONE',  ( -1.000000000000000000, 0.000000000000000000, 0.000000000000000000 ) ) ;
#70 = CARTESIAN_POINT ( 'NONE',  ( 10.00000000000000000, 0.000000000000000000, -10.00000000000000000 ) ) ;
#71 = DIRECTION ( 'NONE',  ( -1.000000000000000000, 0.000000000000000000, -0.000000000000000000 ) ) ;
#72 = EDGE_CURVE ( 'NONE', #201, #154, #40, .T. ) ;
#73 = VECTOR ( 'NONE', #115, 1000.000000000000000 ) ;
#74 = LINE ( 'NONE', #182, #302 ) ;
#75 = DIRECTION ( 'NONE',  ( 0.000000000000000000, 0.000000000000000000, 1.000000000000000000 ) ) ;
#76 = CARTESIAN_POINT ( 'NONE',  ( 0.000000000000000000, -0.4329999999999997740, 0.000000000000000000 ) ) ;
#77 = AXIS2_PLACEMENT_3D ( 'NONE', #209, #246, #75 ) ;
#78 = ADVANCED_FACE ( 'PLANAR_2', ( #268 ), #94, .F. ) ;
#79 = DIRECTION ( 'NONE',  ( 0.000000000000000000, 1.000000000000000000, 0.000000000000000000 ) ) ;
#80 = EDGE_LOOP ( 'NONE', ( #189, #19 ) ) ;
#81 = ORIENTED_EDGE ( 'NONE', *, *, #301, .T. ) ;
#82 = PLANE ( 'NONE',  #39 ) ;
#83 = DIRECTION ( 'NONE',  ( 0.000000000000000000, 0.000000000000000000, 1.000000000000000000 ) ) ;
#84 = EDGE_LOOP ( 'NONE', ( #360, #128, #52, #140 ) ) ;
#85 = ORIENTED_EDGE ( 'NONE', *, *, #313, .F. ) ;
#86 = VERTEX_POINT ( 'NONE', #8 ) ;
#87 = CONICAL_SURFACE ( 'NONE', #14, 2.067000000000000171, 0.7853981633974482790 ) ;
#88 = ORIENTED_EDGE ( 'NONE', *, *, #200, .F. ) ;
#89 = CARTESIAN_POINT ( 'NONE',  ( 0.000000000000000000, -0.4329999999999997740, 2.067000000000000171 ) ) ;
#90 = LINE ( 'NONE', #238, #208 ) ;
#91 = EDGE_CURVE ( 'NONE', #198, #310, #321, .T. ) ;
#92 = CIRCLE ( 'NONE', #192, 2.067000000000000171 ) ;
#93 = DIRECTION ( 'NONE',  ( -0.000000000000000000, -1.000000000000000000, -0.000000000000000000 ) ) ;
#94 = PLANE ( 'NONE',  #274 ) ;
#95 = DIRECTION ( 'NONE',  ( 0.000000000000000000, 1.000000000000000000, 0.000000000000000000 ) ) ;
#96 = DIRECTION ( 'NONE',  ( 0.000000000000000000, 0.000000000000000000, 1.000000000000000000 ) ) ;
#97 = ORIENTED_EDGE ( 'NONE', *, *, #200, .T. ) ;
#98 = DIRECTION ( 'NONE',  ( 0.000000000000000000, 0.000000000000000000, 1.000000000000000000 ) ) ;
#99 = CARTESIAN_POINT ( 'NONE',  ( 0.000000000000000000, -4.000000000000000000, 0.000000000000000000 ) ) ;
#100 = VERTEX_POINT ( 'NONE', #89 ) ;
#101 = LINE ( 'NONE', #45, #32 ) ;
#102 = EDGE_LOOP ( 'NONE', ( #228, #7, #105, #166 ) ) ;
#103 = CIRCLE ( 'NONE', #116, 2.500000000000000000 ) ;
#104 = FACE_OUTER_BOUND ( 'NONE', #336, .T. ) ;
#105 = ORIENTED_EDGE ( 'NONE', *, *, #292, .T. ) ;
#106 = DIRECTION ( 'NONE',  ( 0.000000000000000000, 1.000000000000000000, 0.000000000000000000 ) ) ;
#107 = VERTEX_POINT ( 'NONE', #121 ) ;
#108 = PRODUCT_RELATED_PRODUCT_CATEGORY ( 'part', '', ( #247 ) ) ;
#109 = ORIENTED_EDGE ( 'NONE', *, *, #352, .F. ) ;
#110 = CONICAL_SURFACE ( 'NONE', #319, 2.500000000000000000, 0.7853981633974482790 ) ;
#111 = DIRECTION ( 'NONE',  ( 0.000000000000000000, 0.000000000000000000, -1.000000000000000000 ) ) ;
#112 = LINE ( 'NONE', #30, #73 ) ;
#113 = DIRECTION ( 'NONE',  ( 0.000000000000000000, 1.000000000000000000, -0.000000000000000000 ) ) ;
#114 = ORIENTED_EDGE ( 'NONE', *, *, #161, .F. ) ;
#115 = DIRECTION ( 'NONE',  ( 0.000000000000000000, 0.000000000000000000, 1.000000000000000000 ) ) ;
#116 = AXIS2_PLACEMENT_3D ( 'NONE', #3, #253, #83 ) ;
#117 = DIRECTION ( 'NONE',  ( 8.659560562354931626E-17, 0.7071067811865475727, -0.7071067811865474617 ) ) ;
#118 = EDGE_CURVE ( 'NONE', #86, #325, #289, .T. ) ;
#119 = LINE ( 'NONE', #64, #60 ) ;
#120 = CARTESIAN_POINT ( 'NONE',  ( 10.00000000000000000, 0.000000000000000000, -10.00000000000000000 ) ) ;
#121 = CARTESIAN_POINT ( 'NONE',  ( -10.00000000000000000, 0.000000000000000000, 10.00000000000000000 ) ) ;
#122 = EDGE_CURVE ( 'NONE', #286, #86, #297, .T. ) ;
#123 = LINE ( 'NONE', #240, #37 ) ;
#124 = DIRECTION ( 'NONE',  ( 0.000000000000000000, 1.000000000000000000, 0.000000000000000000 ) ) ;
#125 = ORIENTED_EDGE ( 'NONE', *, *, #72, .F. ) ;
#126 = CARTESIAN_POINT ( 'NONE',  ( -10.00000000000000000, -4.000000000000000000, -10.00000000000000000 ) ) ;
#127 = AXIS2_PLACEMENT_3D ( 'NONE', #203, #66, #296 ) ;
#128 = ORIENTED_EDGE ( 'NONE', *, *, #2, .F. ) ;
#129 =( NAMED_UNIT ( * ) SI_UNIT ( $, .STERADIAN. ) SOLID_ANGLE_UNIT ( ) );
#130 = EDGE_LOOP ( 'NONE', ( #314, #272, #306, #85 ) ) ;
#131 = SURFACE_SIDE_STYLE ('',( #216 ) ) ;
#132 = CONICAL_SURFACE ( 'NONE', #315, 2.500000000000000000, 0.7853981633974482790 ) ;
#133 = EDGE_CURVE ( 'NONE', #158, #243, #344, .T. ) ;
#134 = DIRECTION ( 'NONE',  ( 1.000000000000000000, 0.000000000000000000, 0.000000000000000000 ) ) ;
#135 = ORIENTED_EDGE ( 'NONE', *, *, #56, .F. ) ;
#136 = ORIENTED_EDGE ( 'NONE', *, *, #231, .F. ) ;
#137 = EDGE_LOOP ( 'NONE', ( #284, #349, #276, #280 ) ) ;
#138 = MECHANICAL_DESIGN_GEOMETRIC_PRESENTATION_REPRESENTATION (  '', ( #256 ), #186 ) ;
#139 = DIRECTION ( 'NONE',  ( 0.000000000000000000, 0.000000000000000000, 1.000000000000000000 ) ) ;
#140 = ORIENTED_EDGE ( 'NONE', *, *, #239, .T. ) ;
#141 = APPLICATION_PROTOCOL_DEFINITION ( 'draft international standard', 'automotive_design', 1998, #24 ) ;
#142 = ORIENTED_EDGE ( 'NONE', *, *, #133, .T. ) ;
#143 = DIRECTION ( 'NONE',  ( 0.000000000000000000, 0.000000000000000000, -1.000000000000000000 ) ) ;
#144 = CLOSED_SHELL ( 'NONE', ( #281, #287, #61, #326, #234, #78, #346, #252, #187, #223, #266, #51 ) ) ;
#145 = AXIS2_PLACEMENT_3D ( 'NONE', #295, #79, #348 ) ;
#146 = DIRECTION ( 'NONE',  ( 0.000000000000000000, 0.000000000000000000, 1.000000000000000000 ) ) ;
#147 = CARTESIAN_POINT ( 'NONE',  ( 2.531344933837579267E-16, -0.4329999999999997740, -2.067000000000000171 ) ) ;
#148 = CARTESIAN_POINT ( 'NONE',  ( 10.00000000000000000, 0.000000000000000000, 10.00000000000000000 ) ) ;
#149 = VECTOR ( 'NONE', #117, 1000.000000000000000 ) ;
#150 = CARTESIAN_POINT ( 'NONE',  ( 10.00000000000000000, -4.000000000000000000, 10.00000000000000000 ) ) ;
#151 = EDGE_CURVE ( 'NONE', #286, #198, #123, .T. ) ;
#152 = FACE_OUTER_BOUND ( 'NONE', #84, .T. ) ;
#153 = CYLINDRICAL_SURFACE ( 'NONE', #269, 2.067000000000000171 ) ;
#154 = VERTEX_POINT ( 'NONE', #150 ) ;
#155 = EDGE_CURVE ( 'NONE', #154, #169, #237, .T. ) ;
#156 = PRESENTATION_STYLE_ASSIGNMENT (( #214 ) ) ;
#157 = VECTOR ( 'NONE', #106, 1000.000000000000000 ) ;
#158 = VERTEX_POINT ( 'NONE', #120 ) ;
#159 = DIRECTION ( 'NONE',  ( 0.000000000000000000, 0.000000000000000000, 1.000000000000000000 ) ) ;
#160 = CARTESIAN_POINT ( 'NONE',  ( -10.00000000000000000, 0.000000000000000000, 10.00000000000000000 ) ) ;
#161 = EDGE_CURVE ( 'NONE', #249, #154, #41, .T. ) ;
#162 = CARTESIAN_POINT ( 'NONE',  ( -10.00000000000000000, -4.000000000000000000, -10.00000000000000000 ) ) ;
#163 = CARTESIAN_POINT ( 'NONE',  ( 0.000000000000000000, -0.4329999999999997740, 0.000000000000000000 ) ) ;
#164 = EDGE_CURVE ( 'NONE', #361, #325, #244, .T. ) ;
#165 = FACE_OUTER_BOUND ( 'NONE', #53, .T. ) ;
#166 = ORIENTED_EDGE ( 'NONE', *, *, #301, .F. ) ;
#167 = ORIENTED_EDGE ( 'NONE', *, *, #161, .T. ) ;
#168 = CARTESIAN_POINT ( 'NONE',  ( -10.00000000000000000, 0.000000000000000000, 10.00000000000000000 ) ) ;
#169 = VERTEX_POINT ( 'NONE', #67 ) ;
#170 = VECTOR ( 'NONE', #191, 1000.000000000000000 ) ;
#171 = DIRECTION ( 'NONE',  ( 0.000000000000000000, 0.000000000000000000, -1.000000000000000000 ) ) ;
#172 = DIRECTION ( 'NONE',  ( 0.000000000000000000, 1.000000000000000000, 0.000000000000000000 ) ) ;
#173 = CARTESIAN_POINT ( 'NONE',  ( 10.00000000000000000, -4.000000000000000000, 10.00000000000000000 ) ) ;
#174 = FACE_OUTER_BOUND ( 'NONE', #47, .T. ) ;
#175 = FACE_OUTER_BOUND ( 'NONE', #251, .T. ) ;
#176 = CARTESIAN_POINT ( 'NONE',  ( 0.000000000000000000, -3.567000000000000171, 0.000000000000000000 ) ) ;
#177 = AXIS2_PLACEMENT_3D ( 'NONE', #126, #17, #159 ) ;
#178 = FACE_OUTER_BOUND ( 'NONE', #308, .T. ) ;
#179 = FILL_AREA_STYLE ('',( #48 ) ) ;
#180 = ORIENTED_EDGE ( 'NONE', *, *, #122, .F. ) ;
#181 = EDGE_CURVE ( 'NONE', #158, #169, #119, .T. ) ;
#182 = CARTESIAN_POINT ( 'NONE',  ( 0.000000000000000000, -0.4329999999999997740, 2.067000000000000171 ) ) ;
#183 = PRODUCT_DEFINITION_SHAPE ( 'NONE', 'NONE',  #63 ) ;
#184 =( LENGTH_UNIT ( ) NAMED_UNIT ( * ) SI_UNIT ( .MILLI., .METRE. ) );
#185 = CIRCLE ( 'NONE', #328, 2.067000000000000171 ) ;
#186 =( GEOMETRIC_REPRESENTATION_CONTEXT ( 3 ) GLOBAL_UNCERTAINTY_ASSIGNED_CONTEXT ( ( #236 ) ) GLOBAL_UNIT_ASSIGNED_CONTEXT ( ( #184, #327, #129 ) ) REPRESENTATION_CONTEXT ( 'NONE', 'WORKASPACE' ) );
#187 = ADVANCED_FACE ( 'PLANAR_5', ( #174 ), #270, .F. ) ;
#188 = CARTESIAN_POINT ( 'NONE',  ( 0.000000000000000000, -4.000000000000000000, 0.000000000000000000 ) ) ;
#189 = ORIENTED_EDGE ( 'NONE', *, *, #164, .T. ) ;
#190 = ORIENTED_EDGE ( 'NONE', *, *, #239, .F. ) ;
#191 = DIRECTION ( 'NONE',  ( -0.000000000000000000, -1.000000000000000000, -0.000000000000000000 ) ) ;
#192 = AXIS2_PLACEMENT_3D ( 'NONE', #255, #224, #232 ) ;
#193 = AXIS2_PLACEMENT_3D ( 'NONE', #197, #113, #254 ) ;
#194 = EDGE_LOOP ( 'NONE', ( #330, #136, #356, #196 ) ) ;
#195 = FACE_BOUND ( 'NONE', #23, .T. ) ;
#196 = ORIENTED_EDGE ( 'NONE', *, *, #35, .T. ) ;
#197 = CARTESIAN_POINT ( 'NONE',  ( -10.00000000000000000, 0.000000000000000000, -10.00000000000000000 ) ) ;
#198 = VERTEX_POINT ( 'NONE', #36 ) ;
#199 = VECTOR ( 'NONE', #235, 1000.000000000000000 ) ;
#200 = EDGE_CURVE ( 'NONE', #249, #158, #347, .T. ) ;
#201 = VERTEX_POINT ( 'NONE', #263 ) ;
#202 = DIRECTION ( 'NONE',  ( 0.000000000000000000, 1.000000000000000000, 0.000000000000000000 ) ) ;
#203 = CARTESIAN_POINT ( 'NONE',  ( 0.000000000000000000, -4.000000000000000000, 0.000000000000000000 ) ) ;
#204 = AXIS2_PLACEMENT_3D ( 'NONE', #250, #359, #331 ) ;
#205 = DIRECTION ( 'NONE',  ( 0.000000000000000000, 1.000000000000000000, 0.000000000000000000 ) ) ;
#206 = DIRECTION ( 'NONE',  ( 1.000000000000000000, 0.000000000000000000, 0.000000000000000000 ) ) ;
#207 = DIRECTION ( 'NONE',  ( 0.000000000000000000, 0.000000000000000000, 1.000000000000000000 ) ) ;
#208 = VECTOR ( 'NONE', #69, 1000.000000000000000 ) ;
#209 = CARTESIAN_POINT ( 'NONE',  ( 0.000000000000000000, 0.000000000000000000, 0.000000000000000000 ) ) ;
#210 = EDGE_CURVE ( 'NONE', #243, #107, #317, .T. ) ;
#211 = EDGE_LOOP ( 'NONE', ( #180, #26, #230, #109 ) ) ;
#212 = CARTESIAN_POINT ( 'NONE',  ( 0.000000000000000000, -4.000000000000000000, 0.000000000000000000 ) ) ;
#213 = EDGE_CURVE ( 'NONE', #169, #332, #90, .T. ) ;
#214 = SURFACE_STYLE_USAGE ( .BOTH. , #131 ) ;
#215 = ORIENTED_EDGE ( 'NONE', *, *, #72, .T. ) ;
#216 = SURFACE_STYLE_FILL_AREA ( #179 ) ;
#217 = AXIS2_PLACEMENT_3D ( 'NONE', #176, #202, #207 ) ;
#218 = ORIENTED_EDGE ( 'NONE', *, *, #292, .F. ) ;
#219 = SHAPE_DEFINITION_REPRESENTATION ( #183, #15 ) ;
#220 = ORIENTED_EDGE ( 'NONE', *, *, #231, .T. ) ;
#221 = LINE ( 'NONE', #54, #157 ) ;
#222 = ORIENTED_EDGE ( 'NONE', *, *, #213, .F. ) ;
#223 = ADVANCED_FACE ( 'CONE_0', ( #175 ), #307, .F. ) ;
#224 = DIRECTION ( 'NONE',  ( 0.000000000000000000, 1.000000000000000000, 0.000000000000000000 ) ) ;
#225 = AXIS2_PLACEMENT_3D ( 'NONE', #351, #245, #71 ) ;
#226 =( GEOMETRIC_REPRESENTATION_CONTEXT ( 3 ) GLOBAL_UNCERTAINTY_ASSIGNED_CONTEXT ( ( #65 ) ) GLOBAL_UNIT_ASSIGNED_CONTEXT ( ( #258, #29, #227 ) ) REPRESENTATION_CONTEXT ( 'NONE', 'WORKASPACE' ) );
#227 =( NAMED_UNIT ( * ) SI_UNIT ( $, .STERADIAN. ) SOLID_ANGLE_UNIT ( ) );
#228 = ORIENTED_EDGE ( 'NONE', *, *, #68, .F. ) ;
#229 = DIRECTION ( 'NONE',  ( 0.000000000000000000, 1.000000000000000000, 0.000000000000000000 ) ) ;
#230 = ORIENTED_EDGE ( 'NONE', *, *, #68, .T. ) ;
#231 = EDGE_CURVE ( 'NONE', #107, #201, #25, .T. ) ;
#232 = DIRECTION ( 'NONE',  ( 0.000000000000000000, 0.000000000000000000, 1.000000000000000000 ) ) ;
#233 = VECTOR ( 'NONE', #241, 1000.000000000000000 ) ;
#234 = ADVANCED_FACE ( 'PLANAR_1', ( #104, #299 ), #358, .F. ) ;
#235 = DIRECTION ( 'NONE',  ( -0.000000000000000000, -1.000000000000000000, -0.000000000000000000 ) ) ;
#236 = UNCERTAINTY_MEASURE_WITH_UNIT (LENGTH_MEASURE( 1.000000000000000082E-05 ), #184, 'distance_accuracy_value', 'NONE');
#237 = LINE ( 'NONE', #173, #264 ) ;
#238 = CARTESIAN_POINT ( 'NONE',  ( 10.00000000000000000, -4.000000000000000000, -10.00000000000000000 ) ) ;
#239 = EDGE_CURVE ( 'NONE', #100, #198, #350, .T. ) ;
#240 = CARTESIAN_POINT ( 'NONE',  ( 2.531344933837579267E-16, -4.000000000000000000, -2.067000000000000171 ) ) ;
#241 = DIRECTION ( 'NONE',  ( 8.659560562354931626E-17, -0.7071067811865475727, 0.7071067811865474617 ) ) ;
#242 = DIRECTION ( 'NONE',  ( 0.000000000000000000, 0.000000000000000000, -1.000000000000000000 ) ) ;
#243 = VERTEX_POINT ( 'NONE', #323 ) ;
#244 = CIRCLE ( 'NONE', #127, 2.500000000000000000 ) ;
#245 = DIRECTION ( 'NONE',  ( 0.000000000000000000, 0.000000000000000000, -1.000000000000000000 ) ) ;
#246 = DIRECTION ( 'NONE',  ( 0.000000000000000000, 1.000000000000000000, 0.000000000000000000 ) ) ;
#247 = PRODUCT ( '1.31.EM5', '1.31.EM5', '', ( #333 ) ) ;
#248 = PRESENTATION_LAYER_ASSIGNMENT (  '', '', ( #256 ) ) ;
#249 = VERTEX_POINT ( 'NONE', #298 ) ;
#250 = CARTESIAN_POINT ( 'NONE',  ( 0.000000000000000000, 0.000000000000000000, 0.000000000000000000 ) ) ;
#251 = EDGE_LOOP ( 'NONE', ( #57, #190, #81, #337 ) ) ;
#252 = ADVANCED_FACE ( 'PLANAR_4', ( #178 ), #46, .F. ) ;
#253 = DIRECTION ( 'NONE',  ( 0.000000000000000000, 1.000000000000000000, 0.000000000000000000 ) ) ;
#254 = DIRECTION ( 'NONE',  ( 0.000000000000000000, 0.000000000000000000, 1.000000000000000000 ) ) ;
#255 = CARTESIAN_POINT ( 'NONE',  ( 0.000000000000000000, -3.567000000000000171, 0.000000000000000000 ) ) ;
#256 = STYLED_ITEM ( 'NONE', ( #156 ), #305 ) ;
#257 = PRODUCT_DEFINITION_FORMATION_WITH_SPECIFIED_SOURCE ( 'ANY', '', #247, .NOT_KNOWN. ) ;
#258 =( LENGTH_UNIT ( ) NAMED_UNIT ( * ) SI_UNIT ( .MILLI., .METRE. ) );
#259 = ORIENTED_EDGE ( 'NONE', *, *, #155, .F. ) ;
#260 = EDGE_CURVE ( 'NONE', #286, #361, #101, .T. ) ;
#261 = LINE ( 'NONE', #168, #21 ) ;
#262 = ORIENTED_EDGE ( 'NONE', *, *, #155, .T. ) ;
#263 = CARTESIAN_POINT ( 'NONE',  ( -10.00000000000000000, -4.000000000000000000, 10.00000000000000000 ) ) ;
#264 = VECTOR ( 'NONE', #320, 1000.000000000000000 ) ;
#265 = CARTESIAN_POINT ( 'NONE',  ( 10.00000000000000000, 0.000000000000000000, -10.00000000000000000 ) ) ;
#266 = ADVANCED_FACE ( 'CYL_0', ( #152 ), #153, .F. ) ;
#267 = DIRECTION ( 'NONE',  ( 0.000000000000000000, 0.000000000000000000, 1.000000000000000000 ) ) ;
#268 = FACE_OUTER_BOUND ( 'NONE', #137, .T. ) ;
#269 = AXIS2_PLACEMENT_3D ( 'NONE', #271, #124, #329 ) ;
#270 = PLANE ( 'NONE',  #335 ) ;
#271 = CARTESIAN_POINT ( 'NONE',  ( 0.000000000000000000, -4.000000000000000000, 0.000000000000000000 ) ) ;
#272 = ORIENTED_EDGE ( 'NONE', *, *, #2, .T. ) ;
#273 = DIRECTION ( 'NONE',  ( -0.000000000000000000, -1.000000000000000000, -0.000000000000000000 ) ) ;
#274 = AXIS2_PLACEMENT_3D ( 'NONE', #265, #293, #10 ) ;
#275 = AXIS2_PLACEMENT_3D ( 'NONE', #99, #229, #139 ) ;
#276 = ORIENTED_EDGE ( 'NONE', *, *, #133, .F. ) ;
#277 = CARTESIAN_POINT ( 'NONE',  ( 2.531344933837579267E-16, -3.567000000000000171, -2.067000000000000171 ) ) ;
#278 = DIRECTION ( 'NONE',  ( 1.000000000000000000, 0.000000000000000000, 0.000000000000000000 ) ) ;
#279 = VECTOR ( 'NONE', #143, 1000.000000000000000 ) ;
#280 = ORIENTED_EDGE ( 'NONE', *, *, #181, .T. ) ;
#281 = ADVANCED_FACE ( 'CONE_1', ( #27 ), #110, .F. ) ;
#282 = CARTESIAN_POINT ( 'NONE',  ( 0.000000000000000000, -4.000000000000000000, -2.500000000000000000 ) ) ;
#283 = CARTESIAN_POINT ( 'NONE',  ( 0.000000000000000000, -4.000000000000000000, 0.000000000000000000 ) ) ;
#284 = ORIENTED_EDGE ( 'NONE', *, *, #213, .T. ) ;
#285 = CARTESIAN_POINT ( 'NONE',  ( -10.00000000000000000, 0.000000000000000000, -10.00000000000000000 ) ) ;
#286 = VERTEX_POINT ( 'NONE', #277 ) ;
#287 = ADVANCED_FACE ( 'CYL_0', ( #22 ), #355, .F. ) ;
#288 = ORIENTED_EDGE ( 'NONE', *, *, #181, .F. ) ;
#289 = LINE ( 'NONE', #42, #233 ) ;
#290 = DIRECTION ( 'NONE',  ( 0.000000000000000000, 0.000000000000000000, 1.000000000000000000 ) ) ;
#291 = VECTOR ( 'NONE', #206, 1000.000000000000000 ) ;
#292 = EDGE_CURVE ( 'NONE', #310, #55, #357, .T. ) ;
#293 = DIRECTION ( 'NONE',  ( 0.000000000000000000, -0.000000000000000000, 1.000000000000000000 ) ) ;
#294 = APPLICATION_CONTEXT ( 'automotive_design' ) ;
#295 = CARTESIAN_POINT ( 'NONE',  ( 0.000000000000000000, -0.4329999999999997740, 0.000000000000000000 ) ) ;
#296 = DIRECTION ( 'NONE',  ( 0.000000000000000000, 0.000000000000000000, 1.000000000000000000 ) ) ;
#297 = CIRCLE ( 'NONE', #217, 2.067000000000000171 ) ;
#298 = CARTESIAN_POINT ( 'NONE',  ( 10.00000000000000000, 0.000000000000000000, 10.00000000000000000 ) ) ;
#299 = FACE_BOUND ( 'NONE', #80, .T. ) ;
#300 = DIRECTION ( 'NONE',  ( 0.000000000000000000, 0.7071067811865475727, 0.7071067811865474617 ) ) ;
#301 = EDGE_CURVE ( 'NONE', #100, #55, #74, .T. ) ;
#302 = VECTOR ( 'NONE', #300, 1000.000000000000000 ) ;
#303 = CIRCLE ( 'NONE', #275, 2.500000000000000000 ) ;
#304 = ORIENTED_EDGE ( 'NONE', *, *, #13, .F. ) ;
#305 = MANIFOLD_SOLID_BREP ( 'Body-Move/Copy1', #144 ) ;
#306 = ORIENTED_EDGE ( 'NONE', *, *, #260, .T. ) ;
#307 = CONICAL_SURFACE ( 'NONE', #145, 2.067000000000000171, 0.7853981633974482790 ) ;
#308 = EDGE_LOOP ( 'NONE', ( #215, #114, #59, #220 ) ) ;
#309 = APPLICATION_PROTOCOL_DEFINITION ( 'draft international standard', 'automotive_design', 1998, #294 ) ;
#310 = VERTEX_POINT ( 'NONE', #4 ) ;
#311 = FACE_OUTER_BOUND ( 'NONE', #194, .T. ) ;
#312 = ORIENTED_EDGE ( 'NONE', *, *, #122, .T. ) ;
#313 = EDGE_CURVE ( 'NONE', #325, #361, #303, .T. ) ;
#314 = ORIENTED_EDGE ( 'NONE', *, *, #118, .F. ) ;
#315 = AXIS2_PLACEMENT_3D ( 'NONE', #283, #62, #171 ) ;
#316 = FACE_OUTER_BOUND ( 'NONE', #102, .T. ) ;
#317 = LINE ( 'NONE', #38, #340 ) ;
#318 = CARTESIAN_POINT ( 'NONE',  ( 0.000000000000000000, -0.4329999999999997740, 0.000000000000000000 ) ) ;
#319 = AXIS2_PLACEMENT_3D ( 'NONE', #188, #273, #242 ) ;
#320 = DIRECTION ( 'NONE',  ( 0.000000000000000000, 0.000000000000000000, -1.000000000000000000 ) ) ;
#321 = LINE ( 'NONE', #147, #149 ) ;
#322 = DIRECTION ( 'NONE',  ( 0.000000000000000000, 1.000000000000000000, 0.000000000000000000 ) ) ;
#323 = CARTESIAN_POINT ( 'NONE',  ( -10.00000000000000000, 0.000000000000000000, -10.00000000000000000 ) ) ;
#324 = DIRECTION ( 'NONE',  ( 0.000000000000000000, 1.000000000000000000, 0.000000000000000000 ) ) ;
#325 = VERTEX_POINT ( 'NONE', #58 ) ;
#326 = ADVANCED_FACE ( 'PLANAR_0', ( #165, #195 ), #6, .T. ) ;
#327 =( NAMED_UNIT ( * ) PLANE_ANGLE_UNIT ( ) SI_UNIT ( $, .RADIAN. ) );
#328 = AXIS2_PLACEMENT_3D ( 'NONE', #318, #95, #267 ) ;
#329 = DIRECTION ( 'NONE',  ( 0.000000000000000000, 0.000000000000000000, 1.000000000000000000 ) ) ;
#330 = ORIENTED_EDGE ( 'NONE', *, *, #56, .T. ) ;
#331 = DIRECTION ( 'NONE',  ( 1.000000000000000000, 0.000000000000000000, 0.000000000000000000 ) ) ;
#332 = VERTEX_POINT ( 'NONE', #162 ) ;
#333 = PRODUCT_CONTEXT ( 'NONE', #24, 'mechanical' ) ;
#334 = CARTESIAN_POINT ( 'NONE',  ( -10.00000000000000000, 0.000000000000000000, -10.00000000000000000 ) ) ;
#335 = AXIS2_PLACEMENT_3D ( 'NONE', #342, #16, #290 ) ;
#336 = EDGE_LOOP ( 'NONE', ( #222, #259, #125, #135 ) ) ;
#337 = ORIENTED_EDGE ( 'NONE', *, *, #13, .T. ) ;
#338 = EDGE_LOOP ( 'NONE', ( #312, #353, #5, #31 ) ) ;
#339 = FACE_OUTER_BOUND ( 'NONE', #130, .T. ) ;
#340 = VECTOR ( 'NONE', #146, 1000.000000000000000 ) ;
#341 = EDGE_CURVE ( 'NONE', #107, #249, #261, .T. ) ;
#342 = CARTESIAN_POINT ( 'NONE',  ( 10.00000000000000000, 0.000000000000000000, 10.00000000000000000 ) ) ;
#343 = CARTESIAN_POINT ( 'NONE',  ( 10.00000000000000000, 0.000000000000000000, 10.00000000000000000 ) ) ;
#344 = LINE ( 'NONE', #70, #9 ) ;
#345 = CARTESIAN_POINT ( 'NONE',  ( -10.00000000000000000, -4.000000000000000000, 10.00000000000000000 ) ) ;
#346 = ADVANCED_FACE ( 'PLANAR_3', ( #311 ), #82, .F. ) ;
#347 = LINE ( 'NONE', #343, #279 ) ;
#348 = DIRECTION ( 'NONE',  ( 0.000000000000000000, 0.000000000000000000, 1.000000000000000000 ) ) ;
#349 = ORIENTED_EDGE ( 'NONE', *, *, #35, .F. ) ;
#350 = CIRCLE ( 'NONE', #43, 2.067000000000000171 ) ;
#351 = CARTESIAN_POINT ( 'NONE',  ( -10.00000000000000000, 0.000000000000000000, 10.00000000000000000 ) ) ;
#352 = EDGE_CURVE ( 'NONE', #86, #100, #221, .T. ) ;
#353 = ORIENTED_EDGE ( 'NONE', *, *, #118, .T. ) ;
#354 = DIRECTION ( 'NONE',  ( -0.000000000000000000, -1.000000000000000000, -0.000000000000000000 ) ) ;
#355 = CYLINDRICAL_SURFACE ( 'NONE', #50, 2.067000000000000171 ) ;
#356 = ORIENTED_EDGE ( 'NONE', *, *, #210, .F. ) ;
#357 = CIRCLE ( 'NONE', #77, 2.500000000000000000 ) ;
#358 = PLANE ( 'NONE',  #177 ) ;
#359 = DIRECTION ( 'NONE',  ( 0.000000000000000000, 0.000000000000000000, 1.000000000000000000 ) ) ;
#360 = ORIENTED_EDGE ( 'NONE', *, *, #151, .F. ) ;
#361 = VERTEX_POINT ( 'NONE', #282 ) ;
ENDSEC;
END-ISO-10303-21;
