ISO-10303-21;
HEADER;
FILE_DESCRIPTION (( 'STEP AP214' ),
    '1' );
FILE_NAME ('1.31.EM4.STEP',
    '2024-10-04T16:00:14',
    ( '' ),
    ( '' ),
    'SwSTEP 2.0',
    'SolidWorks 2024',
    '' );
FILE_SCHEMA (( 'AUTOMOTIVE_DESIGN' ));
ENDSEC;

DATA;
#1 = DIRECTION ( 'NONE',  ( 0.000000000000000000, 0.000000000000000000, 1.000000000000000000 ) ) ;
#2 = AXIS2_PLACEMENT_3D ( 'NONE', #103, #306, #239 ) ;
#3 = ADVANCED_FACE ( 'CONE_0', ( #129 ), #208, .F. ) ;
#4 = EDGE_LOOP ( 'NONE', ( #229, #176, #7, #289 ) ) ;
#5 = VECTOR ( 'NONE', #8, 1000.000000000000000 ) ;
#6 = ORIENTED_EDGE ( 'NONE', *, *, #333, .T. ) ;
#7 = ORIENTED_EDGE ( 'NONE', *, *, #341, .T. ) ;
#8 = DIRECTION ( 'NONE',  ( -0.000000000000000000, -1.000000000000000000, -0.000000000000000000 ) ) ;
#9 = CARTESIAN_POINT ( 'NONE',  ( 1.985152461417859467E-16, -0.3790000000000000036, -1.620999999999999996 ) ) ;
#10 = DIRECTION ( 'NONE',  ( 0.000000000000000000, 0.000000000000000000, -1.000000000000000000 ) ) ;
#11 = ORIENTED_EDGE ( 'NONE', *, *, #338, .F. ) ;
#12 = ORIENTED_EDGE ( 'NONE', *, *, #106, .F. ) ;
#13 = LINE ( 'NONE', #201, #265 ) ;
#14 = VECTOR ( 'NONE', #346, 1000.000000000000000 ) ;
#15 = EDGE_LOOP ( 'NONE', ( #107, #58 ) ) ;
#16 = DIRECTION ( 'NONE',  ( 1.000000000000000000, 0.000000000000000000, 0.000000000000000000 ) ) ;
#17 = DIRECTION ( 'NONE',  ( 0.000000000000000000, 0.000000000000000000, 1.000000000000000000 ) ) ;
#18 = LINE ( 'NONE', #354, #210 ) ;
#19 = AXIS2_PLACEMENT_3D ( 'NONE', #214, #54, #125 ) ;
#20 = DIRECTION ( 'NONE',  ( 0.000000000000000000, 1.000000000000000000, 0.000000000000000000 ) ) ;
#21 = LINE ( 'NONE', #310, #242 ) ;
#22 = CLOSED_SHELL ( 'NONE', ( #114, #97, #3, #77, #132, #56, #196, #232, #270, #156, #195, #263 ) ) ;
#23 = EDGE_CURVE ( 'NONE', #287, #142, #327, .T. ) ;
#24 = DIRECTION ( 'NONE',  ( 0.000000000000000000, 0.000000000000000000, 1.000000000000000000 ) ) ;
#25 = CARTESIAN_POINT ( 'NONE',  ( -10.00000000000000000, -4.000000000000000000, -10.00000000000000000 ) ) ;
#26 = EDGE_CURVE ( 'NONE', #137, #297, #21, .T. ) ;
#27 = STYLED_ITEM ( 'NONE', ( #83 ), #47 ) ;
#28 = VECTOR ( 'NONE', #238, 1000.000000000000000 ) ;
#29 = VERTEX_POINT ( 'NONE', #138 ) ;
#30 = EDGE_CURVE ( 'NONE', #142, #148, #251, .T. ) ;
#31 = PLANE ( 'NONE',  #2 ) ;
#32 = APPLICATION_CONTEXT ( 'automotive_design' ) ;
#33 = VERTEX_POINT ( 'NONE', #216 ) ;
#34 = ORIENTED_EDGE ( 'NONE', *, *, #185, .F. ) ;
#35 = ORIENTED_EDGE ( 'NONE', *, *, #350, .T. ) ;
#36 = DIRECTION ( 'NONE',  ( 8.659560562354931626E-17, -0.7071067811865475727, 0.7071067811865474617 ) ) ;
#37 = AXIS2_PLACEMENT_3D ( 'NONE', #113, #151, #61 ) ;
#38 = DIRECTION ( 'NONE',  ( 1.000000000000000000, 0.000000000000000000, 0.000000000000000000 ) ) ;
#39 = EDGE_LOOP ( 'NONE', ( #316, #11, #203, #250 ) ) ;
#40 = CARTESIAN_POINT ( 'NONE',  ( 0.000000000000000000, -4.000000000000000000, 0.000000000000000000 ) ) ;
#41 = DIRECTION ( 'NONE',  ( 0.000000000000000000, 1.000000000000000000, 0.000000000000000000 ) ) ;
#42 = EDGE_LOOP ( 'NONE', ( #342, #279, #197, #226 ) ) ;
#43 = DIRECTION ( 'NONE',  ( 0.000000000000000000, 0.000000000000000000, 1.000000000000000000 ) ) ;
#44 = ORIENTED_EDGE ( 'NONE', *, *, #305, .T. ) ;
#45 = CYLINDRICAL_SURFACE ( 'NONE', #37, 1.620999999999999996 ) ;
#46 = CONICAL_SURFACE ( 'NONE', #325, 1.620999999999999996, 0.7853981633974482790 ) ;
#47 = MANIFOLD_SOLID_BREP ( 'Body-Move/Copy1', #22 ) ;
#48 = FACE_OUTER_BOUND ( 'NONE', #115, .T. ) ;
#49 = DIRECTION ( 'NONE',  ( 0.000000000000000000, 0.000000000000000000, 1.000000000000000000 ) ) ;
#50 = DIRECTION ( 'NONE',  ( 0.000000000000000000, 0.000000000000000000, -1.000000000000000000 ) ) ;
#51 = DIRECTION ( 'NONE',  ( 0.000000000000000000, 1.000000000000000000, 0.000000000000000000 ) ) ;
#52 = DIRECTION ( 'NONE',  ( 0.000000000000000000, 1.000000000000000000, 0.000000000000000000 ) ) ;
#53 = EDGE_CURVE ( 'NONE', #290, #163, #295, .T. ) ;
#54 = DIRECTION ( 'NONE',  ( 0.000000000000000000, 0.000000000000000000, -1.000000000000000000 ) ) ;
#55 = CARTESIAN_POINT ( 'NONE',  ( -10.00000000000000000, 0.000000000000000000, -10.00000000000000000 ) ) ;
#56 = ADVANCED_FACE ( 'PLANAR_2', ( #222 ), #31, .F. ) ;
#57 = FILL_AREA_STYLE_COLOUR ( '', #321 ) ;
#58 = ORIENTED_EDGE ( 'NONE', *, *, #53, .T. ) ;
#59 =( NAMED_UNIT ( * ) SI_UNIT ( $, .STERADIAN. ) SOLID_ANGLE_UNIT ( ) );
#60 = ORIENTED_EDGE ( 'NONE', *, *, #153, .T. ) ;
#61 = DIRECTION ( 'NONE',  ( 0.000000000000000000, 0.000000000000000000, 1.000000000000000000 ) ) ;
#62 = APPLICATION_PROTOCOL_DEFINITION ( 'draft international standard', 'automotive_design', 1998, #32 ) ;
#63 = ORIENTED_EDGE ( 'NONE', *, *, #338, .T. ) ;
#64 = FACE_OUTER_BOUND ( 'NONE', #171, .T. ) ;
#65 = CARTESIAN_POINT ( 'NONE',  ( -10.00000000000000000, 0.000000000000000000, -10.00000000000000000 ) ) ;
#66 = EDGE_LOOP ( 'NONE', ( #345, #282, #276, #280 ) ) ;
#67 = CARTESIAN_POINT ( 'NONE',  ( 10.00000000000000000, -4.000000000000000000, -10.00000000000000000 ) ) ;
#68 = VECTOR ( 'NONE', #85, 1000.000000000000000 ) ;
#69 = EDGE_CURVE ( 'NONE', #29, #146, #357, .T. ) ;
#70 = LINE ( 'NONE', #267, #194 ) ;
#71 = DIRECTION ( 'NONE',  ( 1.000000000000000000, 0.000000000000000000, 0.000000000000000000 ) ) ;
#72 = MECHANICAL_DESIGN_GEOMETRIC_PRESENTATION_REPRESENTATION (  '', ( #27 ), #268 ) ;
#73 = CARTESIAN_POINT ( 'NONE',  ( 2.449293598294706414E-16, -4.000000000000000000, 2.000000000000000000 ) ) ;
#74 = SURFACE_STYLE_USAGE ( .BOTH. , #133 ) ;
#75 = DIRECTION ( 'NONE',  ( 0.000000000000000000, 0.000000000000000000, 1.000000000000000000 ) ) ;
#76 = CARTESIAN_POINT ( 'NONE',  ( 0.000000000000000000, -0.3790000000000000036, 0.000000000000000000 ) ) ;
#77 = ADVANCED_FACE ( 'PLANAR_0', ( #130, #244 ), #192, .T. ) ;
#78 = CONICAL_SURFACE ( 'NONE', #344, 2.000000000000000000, 0.7853981633974482790 ) ;
#79 = EDGE_LOOP ( 'NONE', ( #34, #119, #44, #348 ) ) ;
#80 = CIRCLE ( 'NONE', #121, 2.000000000000000000 ) ;
#81 = APPLICATION_PROTOCOL_DEFINITION ( 'draft international standard', 'automotive_design', 1998, #360 ) ;
#82 = VERTEX_POINT ( 'NONE', #221 ) ;
#83 = PRESENTATION_STYLE_ASSIGNMENT (( #74 ) ) ;
#84 = ORIENTED_EDGE ( 'NONE', *, *, #30, .T. ) ;
#85 = DIRECTION ( 'NONE',  ( -1.000000000000000000, 0.000000000000000000, 0.000000000000000000 ) ) ;
#86 = PRODUCT_CONTEXT ( 'NONE', #360, 'mechanical' ) ;
#87 = CARTESIAN_POINT ( 'NONE',  ( -10.00000000000000000, -4.000000000000000000, -10.00000000000000000 ) ) ;
#88 = FACE_BOUND ( 'NONE', #15, .T. ) ;
#89 =( NAMED_UNIT ( * ) PLANE_ANGLE_UNIT ( ) SI_UNIT ( $, .RADIAN. ) );
#90 = VERTEX_POINT ( 'NONE', #186 ) ;
#91 = PRODUCT_DEFINITION_SHAPE ( 'NONE', 'NONE',  #213 ) ;
#92 = DIRECTION ( 'NONE',  ( 0.000000000000000000, 1.000000000000000000, 0.000000000000000000 ) ) ;
#93 = DIRECTION ( 'NONE',  ( 0.000000000000000000, 0.000000000000000000, -1.000000000000000000 ) ) ;
#94 = CIRCLE ( 'NONE', #274, 1.620999999999999996 ) ;
#95 = PLANE ( 'NONE',  #225 ) ;
#96 = LINE ( 'NONE', #220, #100 ) ;
#97 = ADVANCED_FACE ( 'CYL_0', ( #116 ), #209, .F. ) ;
#98 = CARTESIAN_POINT ( 'NONE',  ( 10.00000000000000000, 0.000000000000000000, 10.00000000000000000 ) ) ;
#99 = CARTESIAN_POINT ( 'NONE',  ( 1.985152461417859467E-16, -4.000000000000000000, -1.620999999999999996 ) ) ;
#100 = VECTOR ( 'NONE', #212, 1000.000000000000000 ) ;
#101 = LINE ( 'NONE', #102, #28 ) ;
#102 = CARTESIAN_POINT ( 'NONE',  ( 0.000000000000000000, -4.000000000000000000, 1.620999999999999996 ) ) ;
#103 = CARTESIAN_POINT ( 'NONE',  ( 10.00000000000000000, 0.000000000000000000, -10.00000000000000000 ) ) ;
#104 =( LENGTH_UNIT ( ) NAMED_UNIT ( * ) SI_UNIT ( .MILLI., .METRE. ) );
#105 = AXIS2_PLACEMENT_3D ( 'NONE', #262, #145, #117 ) ;
#106 = EDGE_CURVE ( 'NONE', #148, #140, #352, .T. ) ;
#107 = ORIENTED_EDGE ( 'NONE', *, *, #326, .T. ) ;
#108 = ORIENTED_EDGE ( 'NONE', *, *, #224, .T. ) ;
#109 = VECTOR ( 'NONE', #75, 1000.000000000000000 ) ;
#110 = VECTOR ( 'NONE', #10, 1000.000000000000000 ) ;
#111 = ORIENTED_EDGE ( 'NONE', *, *, #30, .F. ) ;
#112 = ORIENTED_EDGE ( 'NONE', *, *, #303, .T. ) ;
#113 = CARTESIAN_POINT ( 'NONE',  ( 0.000000000000000000, -4.000000000000000000, 0.000000000000000000 ) ) ;
#114 = ADVANCED_FACE ( 'CONE_1', ( #288 ), #358, .F. ) ;
#115 = EDGE_LOOP ( 'NONE', ( #227, #12, #111, #169 ) ) ;
#116 = FACE_OUTER_BOUND ( 'NONE', #4, .T. ) ;
#117 = DIRECTION ( 'NONE',  ( 0.000000000000000000, 0.000000000000000000, 1.000000000000000000 ) ) ;
#118 = ORIENTED_EDGE ( 'NONE', *, *, #182, .F. ) ;
#119 = ORIENTED_EDGE ( 'NONE', *, *, #240, .F. ) ;
#120 = LINE ( 'NONE', #349, #166 ) ;
#121 = AXIS2_PLACEMENT_3D ( 'NONE', #302, #51, #157 ) ;
#122 = EDGE_LOOP ( 'NONE', ( #200, #60, #337, #234 ) ) ;
#123 = CARTESIAN_POINT ( 'NONE',  ( 10.00000000000000000, 0.000000000000000000, -10.00000000000000000 ) ) ;
#124 = CARTESIAN_POINT ( 'NONE',  ( 0.000000000000000000, -4.000000000000000000, -2.000000000000000000 ) ) ;
#125 = DIRECTION ( 'NONE',  ( -1.000000000000000000, 0.000000000000000000, -0.000000000000000000 ) ) ;
#126 = AXIS2_PLACEMENT_3D ( 'NONE', #275, #167, #329 ) ;
#127 = VECTOR ( 'NONE', #136, 1000.000000000000000 ) ;
#128 = EDGE_CURVE ( 'NONE', #29, #163, #319, .T. ) ;
#129 = FACE_OUTER_BOUND ( 'NONE', #256, .T. ) ;
#130 = FACE_OUTER_BOUND ( 'NONE', #66, .T. ) ;
#131 = FACE_OUTER_BOUND ( 'NONE', #168, .T. ) ;
#132 = ADVANCED_FACE ( 'PLANAR_1', ( #48, #88 ), #144, .F. ) ;
#133 = SURFACE_SIDE_STYLE ('',( #162 ) ) ;
#134 = AXIS2_PLACEMENT_3D ( 'NONE', #40, #343, #93 ) ;
#135 = PRODUCT ( '1.31.EM4', '1.31.EM4', '', ( #86 ) ) ;
#136 = DIRECTION ( 'NONE',  ( -0.000000000000000000, -1.000000000000000000, -0.000000000000000000 ) ) ;
#137 = VERTEX_POINT ( 'NONE', #123 ) ;
#138 = CARTESIAN_POINT ( 'NONE',  ( 1.985152461417859467E-16, -3.620999999999999996, -1.620999999999999996 ) ) ;
#139 = ORIENTED_EDGE ( 'NONE', *, *, #53, .F. ) ;
#140 = VERTEX_POINT ( 'NONE', #204 ) ;
#141 = CARTESIAN_POINT ( 'NONE',  ( 0.000000000000000000, -3.620999999999999996, 1.620999999999999996 ) ) ;
#142 = VERTEX_POINT ( 'NONE', #291 ) ;
#143 = ORIENTED_EDGE ( 'NONE', *, *, #305, .F. ) ;
#144 = PLANE ( 'NONE',  #353 ) ;
#145 = DIRECTION ( 'NONE',  ( 0.000000000000000000, 1.000000000000000000, 0.000000000000000000 ) ) ;
#146 = VERTEX_POINT ( 'NONE', #183 ) ;
#147 = VERTEX_POINT ( 'NONE', #141 ) ;
#148 = VERTEX_POINT ( 'NONE', #236 ) ;
#149 = CARTESIAN_POINT ( 'NONE',  ( 0.000000000000000000, -0.3790000000000000036, 0.000000000000000000 ) ) ;
#150 = ORIENTED_EDGE ( 'NONE', *, *, #341, .F. ) ;
#151 = DIRECTION ( 'NONE',  ( 0.000000000000000000, 1.000000000000000000, 0.000000000000000000 ) ) ;
#152 = CIRCLE ( 'NONE', #184, 1.620999999999999996 ) ;
#153 = EDGE_CURVE ( 'NONE', #147, #290, #70, .T. ) ;
#154 = CARTESIAN_POINT ( 'NONE',  ( 0.000000000000000000, -4.000000000000000000, 0.000000000000000000 ) ) ;
#155 = DIRECTION ( 'NONE',  ( -1.000000000000000000, 0.000000000000000000, 0.000000000000000000 ) ) ;
#156 = ADVANCED_FACE ( 'CONE_0', ( #255 ), #46, .F. ) ;
#157 = DIRECTION ( 'NONE',  ( 0.000000000000000000, 0.000000000000000000, 1.000000000000000000 ) ) ;
#158 = EDGE_CURVE ( 'NONE', #297, #90, #13, .T. ) ;
#159 = CARTESIAN_POINT ( 'NONE',  ( 10.00000000000000000, 0.000000000000000000, 10.00000000000000000 ) ) ;
#160 = CARTESIAN_POINT ( 'NONE',  ( -10.00000000000000000, -4.000000000000000000, 10.00000000000000000 ) ) ;
#161 = DIRECTION ( 'NONE',  ( -0.000000000000000000, -1.000000000000000000, -0.000000000000000000 ) ) ;
#162 = SURFACE_STYLE_FILL_AREA ( #272 ) ;
#163 = VERTEX_POINT ( 'NONE', #206 ) ;
#164 = ORIENTED_EDGE ( 'NONE', *, *, #106, .T. ) ;
#165 = EDGE_CURVE ( 'NONE', #297, #287, #230, .T. ) ;
#166 = VECTOR ( 'NONE', #181, 1000.000000000000000 ) ;
#167 = DIRECTION ( 'NONE',  ( 0.000000000000000000, 1.000000000000000000, 0.000000000000000000 ) ) ;
#168 = EDGE_LOOP ( 'NONE', ( #164, #118, #253, #108 ) ) ;
#169 = ORIENTED_EDGE ( 'NONE', *, *, #23, .F. ) ;
#170 = DIRECTION ( 'NONE',  ( 0.000000000000000000, 0.000000000000000000, 1.000000000000000000 ) ) ;
#171 = EDGE_LOOP ( 'NONE', ( #293, #177, #112, #334 ) ) ;
#172 = PRESENTATION_LAYER_ASSIGNMENT (  '', '', ( #27 ) ) ;
#173 = CIRCLE ( 'NONE', #237, 2.000000000000000000 ) ;
#174 = DIRECTION ( 'NONE',  ( 0.000000000000000000, 1.000000000000000000, 0.000000000000000000 ) ) ;
#175 = CARTESIAN_POINT ( 'NONE',  ( 0.000000000000000000, -0.3790000000000000036, 0.000000000000000000 ) ) ;
#176 = ORIENTED_EDGE ( 'NONE', *, *, #69, .T. ) ;
#177 = ORIENTED_EDGE ( 'NONE', *, *, #350, .F. ) ;
#178 = DIRECTION ( 'NONE',  ( 0.000000000000000000, 1.000000000000000000, 0.000000000000000000 ) ) ;
#179 = ORIENTED_EDGE ( 'NONE', *, *, #224, .F. ) ;
#180 = ORIENTED_EDGE ( 'NONE', *, *, #128, .T. ) ;
#181 = DIRECTION ( 'NONE',  ( -0.000000000000000000, -1.000000000000000000, -0.000000000000000000 ) ) ;
#182 = EDGE_CURVE ( 'NONE', #137, #140, #120, .T. ) ;
#183 = CARTESIAN_POINT ( 'NONE',  ( 2.217223029856282818E-16, -0.3790000000000000036, -1.620999999999999996 ) ) ;
#184 = AXIS2_PLACEMENT_3D ( 'NONE', #76, #20, #24 ) ;
#185 = EDGE_CURVE ( 'NONE', #146, #82, #233, .T. ) ;
#186 = CARTESIAN_POINT ( 'NONE',  ( -10.00000000000000000, 0.000000000000000000, 10.00000000000000000 ) ) ;
#187 = PLANE ( 'NONE',  #19 ) ;
#188 = VERTEX_POINT ( 'NONE', #317 ) ;
#189 = DIRECTION ( 'NONE',  ( 0.000000000000000000, 1.000000000000000000, 0.000000000000000000 ) ) ;
#190 = CIRCLE ( 'NONE', #105, 1.620999999999999996 ) ;
#191 = CARTESIAN_POINT ( 'NONE',  ( 0.000000000000000000, -4.000000000000000000, 0.000000000000000000 ) ) ;
#192 = PLANE ( 'NONE',  #248 ) ;
#193 = DIRECTION ( 'NONE',  ( -1.000000000000000000, 0.000000000000000000, 0.000000000000000000 ) ) ;
#194 = VECTOR ( 'NONE', #36, 1000.000000000000000 ) ;
#195 = ADVANCED_FACE ( 'CYL_0', ( #64 ), #45, .F. ) ;
#196 = ADVANCED_FACE ( 'PLANAR_3', ( #266 ), #228, .F. ) ;
#197 = ORIENTED_EDGE ( 'NONE', *, *, #26, .F. ) ;
#198 = ORIENTED_EDGE ( 'NONE', *, *, #185, .T. ) ;
#199 =( NAMED_UNIT ( * ) PLANE_ANGLE_UNIT ( ) SI_UNIT ( $, .RADIAN. ) );
#200 = ORIENTED_EDGE ( 'NONE', *, *, #330, .T. ) ;
#201 = CARTESIAN_POINT ( 'NONE',  ( -10.00000000000000000, 0.000000000000000000, -10.00000000000000000 ) ) ;
#202 = VECTOR ( 'NONE', #52, 1000.000000000000000 ) ;
#203 = ORIENTED_EDGE ( 'NONE', *, *, #158, .F. ) ;
#204 = CARTESIAN_POINT ( 'NONE',  ( 10.00000000000000000, -4.000000000000000000, -10.00000000000000000 ) ) ;
#205 = PRODUCT_DEFINITION_CONTEXT ( 'detailed design', #32, 'design' ) ;
#206 = CARTESIAN_POINT ( 'NONE',  ( 0.000000000000000000, -4.000000000000000000, -2.000000000000000000 ) ) ;
#207 = DIRECTION ( 'NONE',  ( 0.000000000000000000, 0.000000000000000000, -1.000000000000000000 ) ) ;
#208 = CONICAL_SURFACE ( 'NONE', #126, 1.620999999999999996, 0.7853981633974482790 ) ;
#209 = CYLINDRICAL_SURFACE ( 'NONE', #301, 1.620999999999999996 ) ;
#210 = VECTOR ( 'NONE', #71, 1000.000000000000000 ) ;
#211 = EDGE_CURVE ( 'NONE', #140, #287, #320, .T. ) ;
#212 = DIRECTION ( 'NONE',  ( 0.000000000000000000, 0.7071067811865475727, 0.7071067811865474617 ) ) ;
#213 = PRODUCT_DEFINITION ( 'UNKNOWN', '', #332, #205 ) ;
#214 = CARTESIAN_POINT ( 'NONE',  ( -10.00000000000000000, 0.000000000000000000, 10.00000000000000000 ) ) ;
#215 =( GEOMETRIC_REPRESENTATION_CONTEXT ( 3 ) GLOBAL_UNCERTAINTY_ASSIGNED_CONTEXT ( ( #339 ) ) GLOBAL_UNIT_ASSIGNED_CONTEXT ( ( #292, #89, #249 ) ) REPRESENTATION_CONTEXT ( 'NONE', 'WORKASPACE' ) );
#216 = CARTESIAN_POINT ( 'NONE',  ( 0.000000000000000000, 0.000000000000000000, 2.000000000000000000 ) ) ;
#217 = DIRECTION ( 'NONE',  ( -0.000000000000000000, -1.000000000000000000, -0.000000000000000000 ) ) ;
#218 = EDGE_CURVE ( 'NONE', #33, #82, #173, .T. ) ;
#219 = DIRECTION ( 'NONE',  ( 0.000000000000000000, 1.000000000000000000, 0.000000000000000000 ) ) ;
#220 = CARTESIAN_POINT ( 'NONE',  ( 0.000000000000000000, -0.3790000000000000036, 1.620999999999999996 ) ) ;
#221 = CARTESIAN_POINT ( 'NONE',  ( 2.449293598294706414E-16, 0.000000000000000000, -2.000000000000000000 ) ) ;
#222 = FACE_OUTER_BOUND ( 'NONE', #42, .T. ) ;
#223 = AXIS2_PLACEMENT_3D ( 'NONE', #191, #304, #49 ) ;
#224 = EDGE_CURVE ( 'NONE', #336, #148, #299, .T. ) ;
#225 = AXIS2_PLACEMENT_3D ( 'NONE', #98, #155, #245 ) ;
#226 = ORIENTED_EDGE ( 'NONE', *, *, #182, .T. ) ;
#227 = ORIENTED_EDGE ( 'NONE', *, *, #211, .F. ) ;
#228 = PLANE ( 'NONE',  #286 ) ;
#229 = ORIENTED_EDGE ( 'NONE', *, *, #330, .F. ) ;
#230 = LINE ( 'NONE', #65, #5 ) ;
#231 = EDGE_LOOP ( 'NONE', ( #281, #35, #180, #139 ) ) ;
#232 = ADVANCED_FACE ( 'PLANAR_4', ( #324 ), #187, .F. ) ;
#233 = LINE ( 'NONE', #9, #269 ) ;
#234 = ORIENTED_EDGE ( 'NONE', *, *, #128, .F. ) ;
#235 = DIRECTION ( 'NONE',  ( 0.000000000000000000, 0.000000000000000000, 1.000000000000000000 ) ) ;
#236 = CARTESIAN_POINT ( 'NONE',  ( 10.00000000000000000, -4.000000000000000000, 10.00000000000000000 ) ) ;
#237 = AXIS2_PLACEMENT_3D ( 'NONE', #313, #174, #323 ) ;
#238 = DIRECTION ( 'NONE',  ( 0.000000000000000000, 1.000000000000000000, 0.000000000000000000 ) ) ;
#239 = DIRECTION ( 'NONE',  ( 1.000000000000000000, 0.000000000000000000, -0.000000000000000000 ) ) ;
#240 = EDGE_CURVE ( 'NONE', #188, #146, #152, .T. ) ;
#241 = CARTESIAN_POINT ( 'NONE',  ( 10.00000000000000000, 0.000000000000000000, 10.00000000000000000 ) ) ;
#242 = VECTOR ( 'NONE', #193, 1000.000000000000000 ) ;
#243 = AXIS2_PLACEMENT_3D ( 'NONE', #284, #170, #38 ) ;
#244 = FACE_BOUND ( 'NONE', #312, .T. ) ;
#245 = DIRECTION ( 'NONE',  ( 0.000000000000000000, 0.000000000000000000, 1.000000000000000000 ) ) ;
#246 = DIRECTION ( 'NONE',  ( 0.000000000000000000, 1.000000000000000000, -0.000000000000000000 ) ) ;
#247 = ADVANCED_BREP_SHAPE_REPRESENTATION ( '1.31.EM4', ( #47, #243 ), #215 ) ;
#248 = AXIS2_PLACEMENT_3D ( 'NONE', #55, #246, #361 ) ;
#249 =( NAMED_UNIT ( * ) SI_UNIT ( $, .STERADIAN. ) SOLID_ANGLE_UNIT ( ) );
#250 = ORIENTED_EDGE ( 'NONE', *, *, #165, .T. ) ;
#251 = LINE ( 'NONE', #160, #331 ) ;
#252 = CARTESIAN_POINT ( 'NONE',  ( 10.00000000000000000, 0.000000000000000000, 10.00000000000000000 ) ) ;
#253 = ORIENTED_EDGE ( 'NONE', *, *, #355, .F. ) ;
#254 = ORIENTED_EDGE ( 'NONE', *, *, #333, .F. ) ;
#255 = FACE_OUTER_BOUND ( 'NONE', #79, .T. ) ;
#256 = EDGE_LOOP ( 'NONE', ( #150, #198, #6, #143 ) ) ;
#257 = DIRECTION ( 'NONE',  ( 0.000000000000000000, 0.000000000000000000, 1.000000000000000000 ) ) ;
#258 = EDGE_CURVE ( 'NONE', #90, #336, #18, .T. ) ;
#259 = DIRECTION ( 'NONE',  ( 0.000000000000000000, 0.000000000000000000, 1.000000000000000000 ) ) ;
#260 = ORIENTED_EDGE ( 'NONE', *, *, #218, .F. ) ;
#261 = DIRECTION ( 'NONE',  ( 0.000000000000000000, 0.000000000000000000, -1.000000000000000000 ) ) ;
#262 = CARTESIAN_POINT ( 'NONE',  ( 0.000000000000000000, -3.620999999999999996, 0.000000000000000000 ) ) ;
#263 = ADVANCED_FACE ( 'CONE_1', ( #273 ), #78, .F. ) ;
#264 = ORIENTED_EDGE ( 'NONE', *, *, #258, .F. ) ;
#265 = VECTOR ( 'NONE', #235, 1000.000000000000000 ) ;
#266 = FACE_OUTER_BOUND ( 'NONE', #39, .T. ) ;
#267 = CARTESIAN_POINT ( 'NONE',  ( 2.449293598294706414E-16, -4.000000000000000000, 2.000000000000000000 ) ) ;
#268 =( GEOMETRIC_REPRESENTATION_CONTEXT ( 3 ) GLOBAL_UNCERTAINTY_ASSIGNED_CONTEXT ( ( #351 ) ) GLOBAL_UNIT_ASSIGNED_CONTEXT ( ( #104, #199, #59 ) ) REPRESENTATION_CONTEXT ( 'NONE', 'WORKASPACE' ) );
#269 = VECTOR ( 'NONE', #294, 1000.000000000000000 ) ;
#270 = ADVANCED_FACE ( 'PLANAR_5', ( #131 ), #95, .F. ) ;
#271 = CARTESIAN_POINT ( 'NONE',  ( 0.000000000000000000, -3.620999999999999996, 0.000000000000000000 ) ) ;
#272 = FILL_AREA_STYLE ('',( #57 ) ) ;
#273 = FACE_OUTER_BOUND ( 'NONE', #231, .T. ) ;
#274 = AXIS2_PLACEMENT_3D ( 'NONE', #271, #189, #328 ) ;
#275 = CARTESIAN_POINT ( 'NONE',  ( 0.000000000000000000, -0.3790000000000000036, 0.000000000000000000 ) ) ;
#276 = ORIENTED_EDGE ( 'NONE', *, *, #258, .T. ) ;
#277 = VECTOR ( 'NONE', #261, 1000.000000000000000 ) ;
#278 = CIRCLE ( 'NONE', #296, 1.620999999999999996 ) ;
#279 = ORIENTED_EDGE ( 'NONE', *, *, #165, .F. ) ;
#280 = ORIENTED_EDGE ( 'NONE', *, *, #355, .T. ) ;
#281 = ORIENTED_EDGE ( 'NONE', *, *, #153, .F. ) ;
#282 = ORIENTED_EDGE ( 'NONE', *, *, #158, .T. ) ;
#283 = CARTESIAN_POINT ( 'NONE',  ( 0.000000000000000000, -4.000000000000000000, 0.000000000000000000 ) ) ;
#284 = CARTESIAN_POINT ( 'NONE',  ( 0.000000000000000000, 0.000000000000000000, 0.000000000000000000 ) ) ;
#285 = EDGE_LOOP ( 'NONE', ( #84, #179, #264, #63 ) ) ;
#286 = AXIS2_PLACEMENT_3D ( 'NONE', #340, #16, #207 ) ;
#287 = VERTEX_POINT ( 'NONE', #356 ) ;
#288 = FACE_OUTER_BOUND ( 'NONE', #122, .T. ) ;
#289 = ORIENTED_EDGE ( 'NONE', *, *, #303, .F. ) ;
#290 = VERTEX_POINT ( 'NONE', #73 ) ;
#291 = CARTESIAN_POINT ( 'NONE',  ( -10.00000000000000000, -4.000000000000000000, 10.00000000000000000 ) ) ;
#292 =( LENGTH_UNIT ( ) NAMED_UNIT ( * ) SI_UNIT ( .MILLI., .METRE. ) );
#293 = ORIENTED_EDGE ( 'NONE', *, *, #69, .F. ) ;
#294 = DIRECTION ( 'NONE',  ( 8.659560562354931626E-17, 0.7071067811865475727, -0.7071067811865474617 ) ) ;
#295 = CIRCLE ( 'NONE', #314, 2.000000000000000000 ) ;
#296 = AXIS2_PLACEMENT_3D ( 'NONE', #175, #41, #259 ) ;
#297 = VERTEX_POINT ( 'NONE', #359 ) ;
#298 = CARTESIAN_POINT ( 'NONE',  ( 10.00000000000000000, -4.000000000000000000, 10.00000000000000000 ) ) ;
#299 = LINE ( 'NONE', #159, #309 ) ;
#300 = CARTESIAN_POINT ( 'NONE',  ( 0.000000000000000000, -4.000000000000000000, 0.000000000000000000 ) ) ;
#301 = AXIS2_PLACEMENT_3D ( 'NONE', #154, #178, #17 ) ;
#302 = CARTESIAN_POINT ( 'NONE',  ( 0.000000000000000000, 0.000000000000000000, 0.000000000000000000 ) ) ;
#303 = EDGE_CURVE ( 'NONE', #147, #188, #101, .T. ) ;
#304 = DIRECTION ( 'NONE',  ( 0.000000000000000000, 1.000000000000000000, 0.000000000000000000 ) ) ;
#305 = EDGE_CURVE ( 'NONE', #188, #33, #96, .T. ) ;
#306 = DIRECTION ( 'NONE',  ( 0.000000000000000000, -0.000000000000000000, 1.000000000000000000 ) ) ;
#307 = DIRECTION ( 'NONE',  ( 1.000000000000000000, 0.000000000000000000, 0.000000000000000000 ) ) ;
#308 = CIRCLE ( 'NONE', #223, 2.000000000000000000 ) ;
#309 = VECTOR ( 'NONE', #161, 1000.000000000000000 ) ;
#310 = CARTESIAN_POINT ( 'NONE',  ( 10.00000000000000000, 0.000000000000000000, -10.00000000000000000 ) ) ;
#311 = SHAPE_DEFINITION_REPRESENTATION ( #91, #247 ) ;
#312 = EDGE_LOOP ( 'NONE', ( #260, #254 ) ) ;
#313 = CARTESIAN_POINT ( 'NONE',  ( 0.000000000000000000, 0.000000000000000000, 0.000000000000000000 ) ) ;
#314 = AXIS2_PLACEMENT_3D ( 'NONE', #283, #219, #1 ) ;
#315 = CARTESIAN_POINT ( 'NONE',  ( -10.00000000000000000, 0.000000000000000000, 10.00000000000000000 ) ) ;
#316 = ORIENTED_EDGE ( 'NONE', *, *, #23, .T. ) ;
#317 = CARTESIAN_POINT ( 'NONE',  ( 0.000000000000000000, -0.3790000000000000036, 1.620999999999999996 ) ) ;
#318 = LINE ( 'NONE', #252, #110 ) ;
#319 = LINE ( 'NONE', #124, #14 ) ;
#320 = LINE ( 'NONE', #67, #68 ) ;
#321 = COLOUR_RGB ( '',0.7921568627450980005, 0.8196078431372548767, 0.9333333333333333481 ) ;
#322 = DIRECTION ( 'NONE',  ( 0.000000000000000000, 1.000000000000000000, -0.000000000000000000 ) ) ;
#323 = DIRECTION ( 'NONE',  ( 0.000000000000000000, 0.000000000000000000, 1.000000000000000000 ) ) ;
#324 = FACE_OUTER_BOUND ( 'NONE', #285, .T. ) ;
#325 = AXIS2_PLACEMENT_3D ( 'NONE', #149, #92, #43 ) ;
#326 = EDGE_CURVE ( 'NONE', #163, #290, #308, .T. ) ;
#327 = LINE ( 'NONE', #25, #109 ) ;
#328 = DIRECTION ( 'NONE',  ( 0.000000000000000000, 0.000000000000000000, 1.000000000000000000 ) ) ;
#329 = DIRECTION ( 'NONE',  ( 0.000000000000000000, 0.000000000000000000, 1.000000000000000000 ) ) ;
#330 = EDGE_CURVE ( 'NONE', #29, #147, #94, .T. ) ;
#331 = VECTOR ( 'NONE', #307, 1000.000000000000000 ) ;
#332 = PRODUCT_DEFINITION_FORMATION_WITH_SPECIFIED_SOURCE ( 'ANY', '', #135, .NOT_KNOWN. ) ;
#333 = EDGE_CURVE ( 'NONE', #82, #33, #80, .T. ) ;
#334 = ORIENTED_EDGE ( 'NONE', *, *, #240, .T. ) ;
#335 = PRODUCT_RELATED_PRODUCT_CATEGORY ( 'part', '', ( #135 ) ) ;
#336 = VERTEX_POINT ( 'NONE', #241 ) ;
#337 = ORIENTED_EDGE ( 'NONE', *, *, #326, .F. ) ;
#338 = EDGE_CURVE ( 'NONE', #90, #142, #347, .T. ) ;
#339 = UNCERTAINTY_MEASURE_WITH_UNIT (LENGTH_MEASURE( 1.000000000000000082E-05 ), #292, 'distance_accuracy_value', 'NONE');
#340 = CARTESIAN_POINT ( 'NONE',  ( -10.00000000000000000, 0.000000000000000000, -10.00000000000000000 ) ) ;
#341 = EDGE_CURVE ( 'NONE', #146, #188, #278, .T. ) ;
#342 = ORIENTED_EDGE ( 'NONE', *, *, #211, .T. ) ;
#343 = DIRECTION ( 'NONE',  ( -0.000000000000000000, -1.000000000000000000, -0.000000000000000000 ) ) ;
#344 = AXIS2_PLACEMENT_3D ( 'NONE', #300, #217, #50 ) ;
#345 = ORIENTED_EDGE ( 'NONE', *, *, #26, .T. ) ;
#346 = DIRECTION ( 'NONE',  ( 0.000000000000000000, -0.7071067811865475727, -0.7071067811865474617 ) ) ;
#347 = LINE ( 'NONE', #315, #127 ) ;
#348 = ORIENTED_EDGE ( 'NONE', *, *, #218, .T. ) ;
#349 = CARTESIAN_POINT ( 'NONE',  ( 10.00000000000000000, 0.000000000000000000, -10.00000000000000000 ) ) ;
#350 = EDGE_CURVE ( 'NONE', #147, #29, #190, .T. ) ;
#351 = UNCERTAINTY_MEASURE_WITH_UNIT (LENGTH_MEASURE( 1.000000000000000082E-05 ), #104, 'distance_accuracy_value', 'NONE');
#352 = LINE ( 'NONE', #298, #277 ) ;
#353 = AXIS2_PLACEMENT_3D ( 'NONE', #87, #322, #257 ) ;
#354 = CARTESIAN_POINT ( 'NONE',  ( -10.00000000000000000, 0.000000000000000000, 10.00000000000000000 ) ) ;
#355 = EDGE_CURVE ( 'NONE', #336, #137, #318, .T. ) ;
#356 = CARTESIAN_POINT ( 'NONE',  ( -10.00000000000000000, -4.000000000000000000, -10.00000000000000000 ) ) ;
#357 = LINE ( 'NONE', #99, #202 ) ;
#358 = CONICAL_SURFACE ( 'NONE', #134, 2.000000000000000000, 0.7853981633974482790 ) ;
#359 = CARTESIAN_POINT ( 'NONE',  ( -10.00000000000000000, 0.000000000000000000, -10.00000000000000000 ) ) ;
#360 = APPLICATION_CONTEXT ( 'automotive_design' ) ;
#361 = DIRECTION ( 'NONE',  ( 0.000000000000000000, 0.000000000000000000, 1.000000000000000000 ) ) ;
ENDSEC;
END-ISO-10303-21;
