ISO-10303-21;
HEADER;
FILE_DESCRIPTION (( 'STEP AP214' ),
    '1' );
FILE_NAME ('1.31.EM3.STEP',
    '2024-10-04T15:59:23',
    ( '' ),
    ( '' ),
    'SwSTEP 2.0',
    'SolidWorks 2024',
    '' );
FILE_SCHEMA (( 'AUTOMOTIVE_DESIGN' ));
ENDSEC;

DATA;
#1 = AXIS2_PLACEMENT_3D ( 'NONE', #127, #186, #323 ) ;
#2 = VECTOR ( 'NONE', #63, 1000.000000000000000 ) ;
#3 = ORIENTED_EDGE ( 'NONE', *, *, #204, .F. ) ;
#4 = DIRECTION ( 'NONE',  ( 0.000000000000000000, 0.000000000000000000, 1.000000000000000000 ) ) ;
#5 = EDGE_CURVE ( 'NONE', #320, #300, #61, .T. ) ;
#6 = LINE ( 'NONE', #146, #2 ) ;
#7 = ORIENTED_EDGE ( 'NONE', *, *, #103, .F. ) ;
#8 = SURFACE_SIDE_STYLE ('',( #180 ) ) ;
#9 = STYLED_ITEM ( 'NONE', ( #260 ), #246 ) ;
#10 = CARTESIAN_POINT ( 'NONE',  ( -10.00000000000000000, -4.000000000000000000, 10.00000000000000000 ) ) ;
#11 = ADVANCED_FACE ( 'CYL_0', ( #97 ), #349, .F. ) ;
#12 = VERTEX_POINT ( 'NONE', #217 ) ;
#13 = DIRECTION ( 'NONE',  ( -1.000000000000000000, 0.000000000000000000, 0.000000000000000000 ) ) ;
#14 = ORIENTED_EDGE ( 'NONE', *, *, #5, .T. ) ;
#15 = DIRECTION ( 'NONE',  ( 0.000000000000000000, 0.000000000000000000, 1.000000000000000000 ) ) ;
#16 = VERTEX_POINT ( 'NONE', #220 ) ;
#17 = VECTOR ( 'NONE', #305, 1000.000000000000000 ) ;
#18 = PLANE ( 'NONE',  #105 ) ;
#19 = ORIENTED_EDGE ( 'NONE', *, *, #5, .F. ) ;
#20 = CARTESIAN_POINT ( 'NONE',  ( -10.00000000000000000, -4.000000000000000000, 10.00000000000000000 ) ) ;
#21 = CARTESIAN_POINT ( 'NONE',  ( 0.000000000000000000, 0.000000000000000000, 0.000000000000000000 ) ) ;
#22 = ORIENTED_EDGE ( 'NONE', *, *, #27, .T. ) ;
#23 = DIRECTION ( 'NONE',  ( 0.000000000000000000, 1.000000000000000000, 0.000000000000000000 ) ) ;
#24 = LINE ( 'NONE', #329, #196 ) ;
#25 = VECTOR ( 'NONE', #241, 1000.000000000000000 ) ;
#26 = PRODUCT_RELATED_PRODUCT_CATEGORY ( 'part', '', ( #187 ) ) ;
#27 = EDGE_CURVE ( 'NONE', #350, #174, #222, .T. ) ;
#28 = DIRECTION ( 'NONE',  ( 0.000000000000000000, 1.000000000000000000, 0.000000000000000000 ) ) ;
#29 = LINE ( 'NONE', #110, #156 ) ;
#30 = CIRCLE ( 'NONE', #237, 1.500000000000000000 ) ;
#31 = PLANE ( 'NONE',  #86 ) ;
#32 = PRODUCT_DEFINITION ( 'UNKNOWN', '', #316, #208 ) ;
#33 = AXIS2_PLACEMENT_3D ( 'NONE', #283, #120, #4 ) ;
#34 = ORIENTED_EDGE ( 'NONE', *, *, #282, .T. ) ;
#35 = ORIENTED_EDGE ( 'NONE', *, *, #98, .T. ) ;
#36 = DIRECTION ( 'NONE',  ( 0.000000000000000000, 0.000000000000000000, -1.000000000000000000 ) ) ;
#37 = ADVANCED_FACE ( 'PLANAR_1', ( #298, #270 ), #69, .F. ) ;
#38 = CIRCLE ( 'NONE', #254, 1.229500000000000037 ) ;
#39 = VERTEX_POINT ( 'NONE', #351 ) ;
#40 = DIRECTION ( 'NONE',  ( 0.000000000000000000, 0.000000000000000000, 1.000000000000000000 ) ) ;
#41 = ORIENTED_EDGE ( 'NONE', *, *, #53, .T. ) ;
#42 = DIRECTION ( 'NONE',  ( 0.000000000000000000, 0.000000000000000000, -1.000000000000000000 ) ) ;
#43 = APPLICATION_PROTOCOL_DEFINITION ( 'draft international standard', 'automotive_design', 1998, #299 ) ;
#44 = ORIENTED_EDGE ( 'NONE', *, *, #210, .F. ) ;
#45 = CARTESIAN_POINT ( 'NONE',  ( 0.000000000000000000, -4.000000000000000000, 0.000000000000000000 ) ) ;
#46 = ORIENTED_EDGE ( 'NONE', *, *, #239, .F. ) ;
#47 = VECTOR ( 'NONE', #178, 999.9999999999998863 ) ;
#48 = DIRECTION ( 'NONE',  ( 0.000000000000000000, 1.000000000000000000, 0.000000000000000000 ) ) ;
#49 = AXIS2_PLACEMENT_3D ( 'NONE', #45, #124, #42 ) ;
#50 = EDGE_LOOP ( 'NONE', ( #267, #126, #188, #64 ) ) ;
#51 = DIRECTION ( 'NONE',  ( 0.000000000000000000, 0.000000000000000000, 1.000000000000000000 ) ) ;
#52 = DIRECTION ( 'NONE',  ( 0.000000000000000000, 1.000000000000000000, 0.000000000000000000 ) ) ;
#53 = EDGE_CURVE ( 'NONE', #174, #242, #202, .T. ) ;
#54 = CARTESIAN_POINT ( 'NONE',  ( 0.000000000000000000, -4.000000000000000000, -1.500000000000000000 ) ) ;
#55 = VECTOR ( 'NONE', #122, 1000.000000000000000 ) ;
#56 = CARTESIAN_POINT ( 'NONE',  ( 10.00000000000000000, -4.000000000000000000, -10.00000000000000000 ) ) ;
#57 = LINE ( 'NONE', #10, #25 ) ;
#58 = PRESENTATION_LAYER_ASSIGNMENT (  '', '', ( #9 ) ) ;
#59 = EDGE_LOOP ( 'NONE', ( #41, #236 ) ) ;
#60 = PLANE ( 'NONE',  #234 ) ;
#61 = CIRCLE ( 'NONE', #215, 1.500000000000000000 ) ;
#62 = ORIENTED_EDGE ( 'NONE', *, *, #282, .F. ) ;
#63 = DIRECTION ( 'NONE',  ( -1.000000000000000000, 0.000000000000000000, 0.000000000000000000 ) ) ;
#64 = ORIENTED_EDGE ( 'NONE', *, *, #27, .F. ) ;
#65 =( NAMED_UNIT ( * ) PLANE_ANGLE_UNIT ( ) SI_UNIT ( $, .RADIAN. ) );
#66 = CARTESIAN_POINT ( 'NONE',  ( 0.000000000000000000, -3.729499999999999815, 0.000000000000000000 ) ) ;
#67 = VERTEX_POINT ( 'NONE', #155 ) ;
#68 = VECTOR ( 'NONE', #93, 1000.000000000000000 ) ;
#69 = PLANE ( 'NONE',  #162 ) ;
#70 = ORIENTED_EDGE ( 'NONE', *, *, #239, .T. ) ;
#71 = CARTESIAN_POINT ( 'NONE',  ( 0.000000000000000000, -4.000000000000000000, 0.000000000000000000 ) ) ;
#72 = PRODUCT_CONTEXT ( 'NONE', #299, 'mechanical' ) ;
#73 = VERTEX_POINT ( 'NONE', #20 ) ;
#74 = CARTESIAN_POINT ( 'NONE',  ( 10.00000000000000000, 0.000000000000000000, 10.00000000000000000 ) ) ;
#75 = ORIENTED_EDGE ( 'NONE', *, *, #109, .F. ) ;
#76 = VECTOR ( 'NONE', #130, 1000.000000000000000 ) ;
#77 = DIRECTION ( 'NONE',  ( 0.000000000000000000, 1.000000000000000000, -0.000000000000000000 ) ) ;
#78 = LINE ( 'NONE', #328, #326 ) ;
#79 = ADVANCED_FACE ( 'PLANAR_0', ( #318, #292 ), #18, .T. ) ;
#80 = FILL_AREA_STYLE ('',( #227 ) ) ;
#81 = DIRECTION ( 'NONE',  ( 0.000000000000000000, 0.000000000000000000, 1.000000000000000000 ) ) ;
#82 = CONICAL_SURFACE ( 'NONE', #230, 1.229500000000000037, 0.7853981633974473908 ) ;
#83 = FACE_OUTER_BOUND ( 'NONE', #269, .T. ) ;
#84 = SURFACE_STYLE_USAGE ( .BOTH. , #8 ) ;
#85 = AXIS2_PLACEMENT_3D ( 'NONE', #211, #13, #243 ) ;
#86 = AXIS2_PLACEMENT_3D ( 'NONE', #143, #264, #200 ) ;
#87 = ADVANCED_FACE ( 'CONE_1', ( #296 ), #312, .F. ) ;
#88 = EDGE_CURVE ( 'NONE', #152, #350, #147, .T. ) ;
#89 = CARTESIAN_POINT ( 'NONE',  ( 0.000000000000000000, 0.000000000000000000, 1.500000000000000000 ) ) ;
#90 = VERTEX_POINT ( 'NONE', #100 ) ;
#91 = CARTESIAN_POINT ( 'NONE',  ( 0.000000000000000000, -4.000000000000000000, 0.000000000000000000 ) ) ;
#92 = CARTESIAN_POINT ( 'NONE',  ( 0.000000000000000000, 0.000000000000000000, 0.000000000000000000 ) ) ;
#93 = DIRECTION ( 'NONE',  ( -0.000000000000000000, -1.000000000000000000, -0.000000000000000000 ) ) ;
#94 = LINE ( 'NONE', #138, #348 ) ;
#95 = AXIS2_PLACEMENT_3D ( 'NONE', #71, #345, #319 ) ;
#96 = ORIENTED_EDGE ( 'NONE', *, *, #226, .F. ) ;
#97 = FACE_OUTER_BOUND ( 'NONE', #344, .T. ) ;
#98 = EDGE_CURVE ( 'NONE', #247, #182, #325, .T. ) ;
#99 = EDGE_LOOP ( 'NONE', ( #119, #46, #322, #7 ) ) ;
#100 = CARTESIAN_POINT ( 'NONE',  ( 1.671336719136350256E-16, -0.2705000000000003513, -1.229500000000000037 ) ) ;
#101 = ORIENTED_EDGE ( 'NONE', *, *, #164, .F. ) ;
#102 = CARTESIAN_POINT ( 'NONE',  ( -10.00000000000000000, 0.000000000000000000, -10.00000000000000000 ) ) ;
#103 = EDGE_CURVE ( 'NONE', #272, #73, #153, .T. ) ;
#104 = ORIENTED_EDGE ( 'NONE', *, *, #313, .T. ) ;
#105 = AXIS2_PLACEMENT_3D ( 'NONE', #102, #77, #268 ) ;
#106 = CARTESIAN_POINT ( 'NONE',  ( 0.000000000000000000, -3.729499999999999815, 1.229500000000000037 ) ) ;
#107 = DIRECTION ( 'NONE',  ( 0.000000000000000000, 1.000000000000000000, 0.000000000000000000 ) ) ;
#108 = CARTESIAN_POINT ( 'NONE',  ( 0.000000000000000000, -0.2705000000000003513, 0.000000000000000000 ) ) ;
#109 = EDGE_CURVE ( 'NONE', #242, #174, #30, .T. ) ;
#110 = CARTESIAN_POINT ( 'NONE',  ( 10.00000000000000000, -4.000000000000000000, 10.00000000000000000 ) ) ;
#111 = AXIS2_PLACEMENT_3D ( 'NONE', #108, #52, #81 ) ;
#112 =( LENGTH_UNIT ( ) NAMED_UNIT ( * ) SI_UNIT ( .MILLI., .METRE. ) );
#113 = EDGE_CURVE ( 'NONE', #16, #67, #250, .T. ) ;
#114 = ADVANCED_FACE ( 'CONE_0', ( #213 ), #142, .F. ) ;
#115 = ORIENTED_EDGE ( 'NONE', *, *, #226, .T. ) ;
#116 =( NAMED_UNIT ( * ) SI_UNIT ( $, .STERADIAN. ) SOLID_ANGLE_UNIT ( ) );
#117 = UNCERTAINTY_MEASURE_WITH_UNIT (LENGTH_MEASURE( 1.000000000000000082E-05 ), #112, 'distance_accuracy_value', 'NONE');
#118 = LINE ( 'NONE', #311, #68 ) ;
#119 = ORIENTED_EDGE ( 'NONE', *, *, #304, .F. ) ;
#120 = DIRECTION ( 'NONE',  ( 0.000000000000000000, 1.000000000000000000, 0.000000000000000000 ) ) ;
#121 = CLOSED_SHELL ( 'NONE', ( #87, #255, #176, #79, #37, #330, #308, #205, #140, #114, #11, #276 ) ) ;
#122 = DIRECTION ( 'NONE',  ( 0.000000000000000000, 0.000000000000000000, 1.000000000000000000 ) ) ;
#123 = FACE_OUTER_BOUND ( 'NONE', #324, .T. ) ;
#124 = DIRECTION ( 'NONE',  ( -0.000000000000000000, -1.000000000000000000, -0.000000000000000000 ) ) ;
#125 = EDGE_CURVE ( 'NONE', #350, #152, #38, .T. ) ;
#126 = ORIENTED_EDGE ( 'NONE', *, *, #168, .T. ) ;
#127 = CARTESIAN_POINT ( 'NONE',  ( 0.000000000000000000, -4.000000000000000000, 0.000000000000000000 ) ) ;
#128 = VECTOR ( 'NONE', #331, 1000.000000000000000 ) ;
#129 = ORIENTED_EDGE ( 'NONE', *, *, #170, .F. ) ;
#130 = DIRECTION ( 'NONE',  ( 0.000000000000000000, 0.000000000000000000, -1.000000000000000000 ) ) ;
#131 = DIRECTION ( 'NONE',  ( 1.000000000000000000, 0.000000000000000000, 0.000000000000000000 ) ) ;
#132 = ORIENTED_EDGE ( 'NONE', *, *, #125, .F. ) ;
#133 = DIRECTION ( 'NONE',  ( 0.000000000000000000, 1.000000000000000000, 0.000000000000000000 ) ) ;
#134 = SHAPE_DEFINITION_REPRESENTATION ( #233, #172 ) ;
#135 = EDGE_LOOP ( 'NONE', ( #19, #62 ) ) ;
#136 = LINE ( 'NONE', #257, #293 ) ;
#137 = DIRECTION ( 'NONE',  ( 0.000000000000000000, 0.000000000000000000, 1.000000000000000000 ) ) ;
#138 = CARTESIAN_POINT ( 'NONE',  ( -10.00000000000000000, 0.000000000000000000, 10.00000000000000000 ) ) ;
#139 = CARTESIAN_POINT ( 'NONE',  ( -10.00000000000000000, 0.000000000000000000, 10.00000000000000000 ) ) ;
#140 = ADVANCED_FACE ( 'PLANAR_5', ( #341 ), #273, .F. ) ;
#141 = ORIENTED_EDGE ( 'NONE', *, *, #228, .T. ) ;
#142 = CONICAL_SURFACE ( 'NONE', #356, 1.229500000000000037, 0.7853981633974473908 ) ;
#143 = CARTESIAN_POINT ( 'NONE',  ( -10.00000000000000000, 0.000000000000000000, -10.00000000000000000 ) ) ;
#144 = ORIENTED_EDGE ( 'NONE', *, *, #334, .F. ) ;
#145 = CARTESIAN_POINT ( 'NONE',  ( 10.00000000000000000, 0.000000000000000000, -10.00000000000000000 ) ) ;
#146 = CARTESIAN_POINT ( 'NONE',  ( 10.00000000000000000, -4.000000000000000000, -10.00000000000000000 ) ) ;
#147 = CIRCLE ( 'NONE', #338, 1.229500000000000037 ) ;
#148 = EDGE_LOOP ( 'NONE', ( #157, #144, #101, #251 ) ) ;
#149 = DIRECTION ( 'NONE',  ( 0.000000000000000000, 1.000000000000000000, 0.000000000000000000 ) ) ;
#150 = CARTESIAN_POINT ( 'NONE',  ( 1.836970198721029934E-16, 0.000000000000000000, -1.500000000000000000 ) ) ;
#151 = EDGE_CURVE ( 'NONE', #67, #73, #94, .T. ) ;
#152 = VERTEX_POINT ( 'NONE', #106 ) ;
#153 = LINE ( 'NONE', #245, #190 ) ;
#154 = ORIENTED_EDGE ( 'NONE', *, *, #113, .F. ) ;
#155 = CARTESIAN_POINT ( 'NONE',  ( -10.00000000000000000, 0.000000000000000000, 10.00000000000000000 ) ) ;
#156 = VECTOR ( 'NONE', #161, 1000.000000000000000 ) ;
#157 = ORIENTED_EDGE ( 'NONE', *, *, #304, .T. ) ;
#158 = CARTESIAN_POINT ( 'NONE',  ( 0.000000000000000000, -4.000000000000000000, 0.000000000000000000 ) ) ;
#159 = VERTEX_POINT ( 'NONE', #56 ) ;
#160 = DIRECTION ( 'NONE',  ( 0.000000000000000000, 0.000000000000000000, 1.000000000000000000 ) ) ;
#161 = DIRECTION ( 'NONE',  ( 0.000000000000000000, 0.000000000000000000, -1.000000000000000000 ) ) ;
#162 = AXIS2_PLACEMENT_3D ( 'NONE', #321, #183, #275 ) ;
#163 = CARTESIAN_POINT ( 'NONE',  ( -10.00000000000000000, 0.000000000000000000, 10.00000000000000000 ) ) ;
#164 = EDGE_CURVE ( 'NONE', #182, #16, #359, .T. ) ;
#165 = CARTESIAN_POINT ( 'NONE',  ( 0.000000000000000000, -0.2705000000000003513, 0.000000000000000000 ) ) ;
#166 = DIRECTION ( 'NONE',  ( -0.000000000000000000, -1.000000000000000000, -0.000000000000000000 ) ) ;
#167 = CIRCLE ( 'NONE', #111, 1.229500000000000037 ) ;
#168 = EDGE_CURVE ( 'NONE', #152, #242, #24, .T. ) ;
#169 = ORIENTED_EDGE ( 'NONE', *, *, #334, .T. ) ;
#170 = EDGE_CURVE ( 'NONE', #152, #39, #199, .T. ) ;
#171 = CARTESIAN_POINT ( 'NONE',  ( 10.00000000000000000, 0.000000000000000000, 10.00000000000000000 ) ) ;
#172 = ADVANCED_BREP_SHAPE_REPRESENTATION ( '1.31.EM3', ( #246, #278 ), #191 ) ;
#173 = DIRECTION ( 'NONE',  ( 1.000000000000000000, 0.000000000000000000, -0.000000000000000000 ) ) ;
#174 = VERTEX_POINT ( 'NONE', #54 ) ;
#175 = FACE_OUTER_BOUND ( 'NONE', #347, .T. ) ;
#176 = ADVANCED_FACE ( 'CONE_0', ( #83 ), #82, .F. ) ;
#177 = ORIENTED_EDGE ( 'NONE', *, *, #181, .T. ) ;
#178 = DIRECTION ( 'NONE',  ( 0.000000000000000000, -0.7071067811865479058, -0.7071067811865472397 ) ) ;
#179 = EDGE_CURVE ( 'NONE', #39, #320, #136, .T. ) ;
#180 = SURFACE_STYLE_FILL_AREA ( #80 ) ;
#181 = EDGE_CURVE ( 'NONE', #90, #300, #357, .T. ) ;
#182 = VERTEX_POINT ( 'NONE', #306 ) ;
#183 = DIRECTION ( 'NONE',  ( 0.000000000000000000, 1.000000000000000000, -0.000000000000000000 ) ) ;
#184 = APPLICATION_CONTEXT ( 'automotive_design' ) ;
#185 = ORIENTED_EDGE ( 'NONE', *, *, #204, .T. ) ;
#186 = DIRECTION ( 'NONE',  ( 0.000000000000000000, 1.000000000000000000, 0.000000000000000000 ) ) ;
#187 = PRODUCT ( '1.31.EM3', '1.31.EM3', '', ( #72 ) ) ;
#188 = ORIENTED_EDGE ( 'NONE', *, *, #53, .F. ) ;
#189 = CARTESIAN_POINT ( 'NONE',  ( 0.000000000000000000, -0.2705000000000003513, 0.000000000000000000 ) ) ;
#190 = VECTOR ( 'NONE', #193, 1000.000000000000000 ) ;
#191 =( GEOMETRIC_REPRESENTATION_CONTEXT ( 3 ) GLOBAL_UNCERTAINTY_ASSIGNED_CONTEXT ( ( #117 ) ) GLOBAL_UNIT_ASSIGNED_CONTEXT ( ( #112, #337, #346 ) ) REPRESENTATION_CONTEXT ( 'NONE', 'WORKASPACE' ) );
#192 = ORIENTED_EDGE ( 'NONE', *, *, #88, .F. ) ;
#193 = DIRECTION ( 'NONE',  ( 0.000000000000000000, 0.000000000000000000, 1.000000000000000000 ) ) ;
#194 = DIRECTION ( 'NONE',  ( 0.000000000000000000, 0.000000000000000000, -1.000000000000000000 ) ) ;
#195 = DIRECTION ( 'NONE',  ( 0.000000000000000000, 0.000000000000000000, 1.000000000000000000 ) ) ;
#196 = VECTOR ( 'NONE', #229, 999.9999999999998863 ) ;
#197 = CIRCLE ( 'NONE', #361, 1.500000000000000000 ) ;
#198 = CARTESIAN_POINT ( 'NONE',  ( 0.000000000000000000, -4.000000000000000000, 1.229500000000000037 ) ) ;
#199 = LINE ( 'NONE', #198, #128 ) ;
#200 = DIRECTION ( 'NONE',  ( 0.000000000000000000, 0.000000000000000000, -1.000000000000000000 ) ) ;
#201 = UNCERTAINTY_MEASURE_WITH_UNIT (LENGTH_MEASURE( 1.000000000000000082E-05 ), #317, 'distance_accuracy_value', 'NONE');
#202 = CIRCLE ( 'NONE', #1, 1.500000000000000000 ) ;
#203 =( GEOMETRIC_REPRESENTATION_CONTEXT ( 3 ) GLOBAL_UNCERTAINTY_ASSIGNED_CONTEXT ( ( #201 ) ) GLOBAL_UNIT_ASSIGNED_CONTEXT ( ( #317, #65, #116 ) ) REPRESENTATION_CONTEXT ( 'NONE', 'WORKASPACE' ) );
#204 = EDGE_CURVE ( 'NONE', #39, #90, #284, .T. ) ;
#205 = ADVANCED_FACE ( 'PLANAR_4', ( #309 ), #225, .F. ) ;
#206 = ORIENTED_EDGE ( 'NONE', *, *, #151, .T. ) ;
#207 = DIRECTION ( 'NONE',  ( 0.000000000000000000, 1.000000000000000000, 0.000000000000000000 ) ) ;
#208 = PRODUCT_DEFINITION_CONTEXT ( 'detailed design', #184, 'design' ) ;
#209 = FACE_OUTER_BOUND ( 'NONE', #148, .T. ) ;
#210 = EDGE_CURVE ( 'NONE', #350, #90, #78, .T. ) ;
#211 = CARTESIAN_POINT ( 'NONE',  ( 10.00000000000000000, 0.000000000000000000, 10.00000000000000000 ) ) ;
#212 = CARTESIAN_POINT ( 'NONE',  ( 10.00000000000000000, 0.000000000000000000, 10.00000000000000000 ) ) ;
#213 = FACE_OUTER_BOUND ( 'NONE', #274, .T. ) ;
#214 = APPLICATION_PROTOCOL_DEFINITION ( 'draft international standard', 'automotive_design', 1998, #184 ) ;
#215 = AXIS2_PLACEMENT_3D ( 'NONE', #92, #48, #51 ) ;
#216 = ORIENTED_EDGE ( 'NONE', *, *, #343, .F. ) ;
#217 = CARTESIAN_POINT ( 'NONE',  ( 10.00000000000000000, -4.000000000000000000, 10.00000000000000000 ) ) ;
#218 = DIRECTION ( 'NONE',  ( 0.000000000000000000, 0.000000000000000000, 1.000000000000000000 ) ) ;
#219 = ORIENTED_EDGE ( 'NONE', *, *, #179, .F. ) ;
#220 = CARTESIAN_POINT ( 'NONE',  ( -10.00000000000000000, 0.000000000000000000, -10.00000000000000000 ) ) ;
#221 = EDGE_LOOP ( 'NONE', ( #104, #216, #96, #206 ) ) ;
#222 = LINE ( 'NONE', #248, #47 ) ;
#223 = VECTOR ( 'NONE', #266, 1000.000000000000000 ) ;
#224 = ORIENTED_EDGE ( 'NONE', *, *, #343, .T. ) ;
#225 = PLANE ( 'NONE',  #281 ) ;
#226 = EDGE_CURVE ( 'NONE', #67, #247, #280, .T. ) ;
#227 = FILL_AREA_STYLE_COLOUR ( '', #360 ) ;
#228 = EDGE_CURVE ( 'NONE', #90, #39, #167, .T. ) ;
#229 = DIRECTION ( 'NONE',  ( 8.659560562354930393E-17, -0.7071067811865479058, 0.7071067811865472397 ) ) ;
#230 = AXIS2_PLACEMENT_3D ( 'NONE', #165, #23, #137 ) ;
#231 = CARTESIAN_POINT ( 'NONE',  ( 0.000000000000000000, -0.2705000000000003513, 0.000000000000000000 ) ) ;
#232 = DIRECTION ( 'NONE',  ( 0.000000000000000000, 0.000000000000000000, 1.000000000000000000 ) ) ;
#233 = PRODUCT_DEFINITION_SHAPE ( 'NONE', 'NONE',  #32 ) ;
#234 = AXIS2_PLACEMENT_3D ( 'NONE', #286, #342, #173 ) ;
#235 = ORIENTED_EDGE ( 'NONE', *, *, #113, .T. ) ;
#236 = ORIENTED_EDGE ( 'NONE', *, *, #109, .T. ) ;
#237 = AXIS2_PLACEMENT_3D ( 'NONE', #158, #303, #40 ) ;
#238 = LINE ( 'NONE', #145, #223 ) ;
#239 = EDGE_CURVE ( 'NONE', #12, #159, #29, .T. ) ;
#240 = DIRECTION ( 'NONE',  ( 0.000000000000000000, 0.000000000000000000, 1.000000000000000000 ) ) ;
#241 = DIRECTION ( 'NONE',  ( 1.000000000000000000, 0.000000000000000000, 0.000000000000000000 ) ) ;
#242 = VERTEX_POINT ( 'NONE', #277 ) ;
#243 = DIRECTION ( 'NONE',  ( 0.000000000000000000, 0.000000000000000000, 1.000000000000000000 ) ) ;
#244 = ORIENTED_EDGE ( 'NONE', *, *, #228, .F. ) ;
#245 = CARTESIAN_POINT ( 'NONE',  ( -10.00000000000000000, -4.000000000000000000, -10.00000000000000000 ) ) ;
#246 = MANIFOLD_SOLID_BREP ( 'Body-Move/Copy1', #121 ) ;
#247 = VERTEX_POINT ( 'NONE', #171 ) ;
#248 = CARTESIAN_POINT ( 'NONE',  ( 0.000000000000000000, -4.000000000000000000, -1.500000000000000000 ) ) ;
#249 = EDGE_LOOP ( 'NONE', ( #70, #291, #285, #224 ) ) ;
#250 = LINE ( 'NONE', #353, #55 ) ;
#251 = ORIENTED_EDGE ( 'NONE', *, *, #253, .T. ) ;
#252 = DIRECTION ( 'NONE',  ( 0.000000000000000000, 0.7071067811865481278, 0.7071067811865470176 ) ) ;
#253 = EDGE_CURVE ( 'NONE', #182, #159, #238, .T. ) ;
#254 = AXIS2_PLACEMENT_3D ( 'NONE', #301, #265, #240 ) ;
#255 = ADVANCED_FACE ( 'CYL_0', ( #123 ), #340, .F. ) ;
#256 = DIRECTION ( 'NONE',  ( -1.000000000000000000, 0.000000000000000000, -0.000000000000000000 ) ) ;
#257 = CARTESIAN_POINT ( 'NONE',  ( 0.000000000000000000, -0.2705000000000003513, 1.229500000000000037 ) ) ;
#258 = AXIS2_PLACEMENT_3D ( 'NONE', #91, #290, #36 ) ;
#259 = ORIENTED_EDGE ( 'NONE', *, *, #168, .F. ) ;
#260 = PRESENTATION_STYLE_ASSIGNMENT (( #84 ) ) ;
#261 = CARTESIAN_POINT ( 'NONE',  ( -10.00000000000000000, -4.000000000000000000, -10.00000000000000000 ) ) ;
#262 = ORIENTED_EDGE ( 'NONE', *, *, #210, .T. ) ;
#263 = LINE ( 'NONE', #212, #339 ) ;
#264 = DIRECTION ( 'NONE',  ( 1.000000000000000000, 0.000000000000000000, 0.000000000000000000 ) ) ;
#265 = DIRECTION ( 'NONE',  ( 0.000000000000000000, 1.000000000000000000, 0.000000000000000000 ) ) ;
#266 = DIRECTION ( 'NONE',  ( -0.000000000000000000, -1.000000000000000000, -0.000000000000000000 ) ) ;
#267 = ORIENTED_EDGE ( 'NONE', *, *, #125, .T. ) ;
#268 = DIRECTION ( 'NONE',  ( 0.000000000000000000, 0.000000000000000000, 1.000000000000000000 ) ) ;
#269 = EDGE_LOOP ( 'NONE', ( #244, #177, #34, #219 ) ) ;
#270 = FACE_BOUND ( 'NONE', #59, .T. ) ;
#271 = VECTOR ( 'NONE', #358, 1000.000000000000000 ) ;
#272 = VERTEX_POINT ( 'NONE', #261 ) ;
#273 = PLANE ( 'NONE',  #85 ) ;
#274 = EDGE_LOOP ( 'NONE', ( #302, #3, #287, #14 ) ) ;
#275 = DIRECTION ( 'NONE',  ( 0.000000000000000000, 0.000000000000000000, 1.000000000000000000 ) ) ;
#276 = ADVANCED_FACE ( 'CONE_1', ( #175 ), #307, .F. ) ;
#277 = CARTESIAN_POINT ( 'NONE',  ( 1.836970198721029934E-16, -4.000000000000000000, 1.500000000000000000 ) ) ;
#278 = AXIS2_PLACEMENT_3D ( 'NONE', #21, #218, #131 ) ;
#279 = DIRECTION ( 'NONE',  ( -0.000000000000000000, -1.000000000000000000, -0.000000000000000000 ) ) ;
#280 = LINE ( 'NONE', #139, #17 ) ;
#281 = AXIS2_PLACEMENT_3D ( 'NONE', #163, #194, #256 ) ;
#282 = EDGE_CURVE ( 'NONE', #300, #320, #197, .T. ) ;
#283 = CARTESIAN_POINT ( 'NONE',  ( 0.000000000000000000, -4.000000000000000000, 0.000000000000000000 ) ) ;
#284 = CIRCLE ( 'NONE', #332, 1.229500000000000037 ) ;
#285 = ORIENTED_EDGE ( 'NONE', *, *, #98, .F. ) ;
#286 = CARTESIAN_POINT ( 'NONE',  ( 10.00000000000000000, 0.000000000000000000, -10.00000000000000000 ) ) ;
#287 = ORIENTED_EDGE ( 'NONE', *, *, #179, .T. ) ;
#288 = CARTESIAN_POINT ( 'NONE',  ( 1.505703239551670824E-16, -3.729499999999999815, -1.229500000000000037 ) ) ;
#289 = EDGE_LOOP ( 'NONE', ( #297, #235, #115, #35 ) ) ;
#290 = DIRECTION ( 'NONE',  ( -0.000000000000000000, -1.000000000000000000, -0.000000000000000000 ) ) ;
#291 = ORIENTED_EDGE ( 'NONE', *, *, #253, .F. ) ;
#292 = FACE_BOUND ( 'NONE', #135, .T. ) ;
#293 = VECTOR ( 'NONE', #252, 1000.000000000000000 ) ;
#294 = CARTESIAN_POINT ( 'NONE',  ( 0.000000000000000000, 0.000000000000000000, 0.000000000000000000 ) ) ;
#295 = ORIENTED_EDGE ( 'NONE', *, *, #103, .T. ) ;
#296 = FACE_OUTER_BOUND ( 'NONE', #50, .T. ) ;
#297 = ORIENTED_EDGE ( 'NONE', *, *, #164, .T. ) ;
#298 = FACE_OUTER_BOUND ( 'NONE', #99, .T. ) ;
#299 = APPLICATION_CONTEXT ( 'automotive_design' ) ;
#300 = VERTEX_POINT ( 'NONE', #150 ) ;
#301 = CARTESIAN_POINT ( 'NONE',  ( 0.000000000000000000, -3.729499999999999815, 0.000000000000000000 ) ) ;
#302 = ORIENTED_EDGE ( 'NONE', *, *, #181, .F. ) ;
#303 = DIRECTION ( 'NONE',  ( 0.000000000000000000, 1.000000000000000000, 0.000000000000000000 ) ) ;
#304 = EDGE_CURVE ( 'NONE', #159, #272, #6, .T. ) ;
#305 = DIRECTION ( 'NONE',  ( 1.000000000000000000, 0.000000000000000000, 0.000000000000000000 ) ) ;
#306 = CARTESIAN_POINT ( 'NONE',  ( 10.00000000000000000, 0.000000000000000000, -10.00000000000000000 ) ) ;
#307 = CONICAL_SURFACE ( 'NONE', #258, 1.500000000000000000, 0.7853981633974479459 ) ;
#308 = ADVANCED_FACE ( 'PLANAR_3', ( #314 ), #31, .F. ) ;
#309 = FACE_OUTER_BOUND ( 'NONE', #221, .T. ) ;
#310 = CARTESIAN_POINT ( 'NONE',  ( 10.00000000000000000, 0.000000000000000000, -10.00000000000000000 ) ) ;
#311 = CARTESIAN_POINT ( 'NONE',  ( -10.00000000000000000, 0.000000000000000000, -10.00000000000000000 ) ) ;
#312 = CONICAL_SURFACE ( 'NONE', #49, 1.500000000000000000, 0.7853981633974479459 ) ;
#313 = EDGE_CURVE ( 'NONE', #73, #12, #57, .T. ) ;
#314 = FACE_OUTER_BOUND ( 'NONE', #336, .T. ) ;
#315 = VECTOR ( 'NONE', #333, 1000.000000000000000 ) ;
#316 = PRODUCT_DEFINITION_FORMATION_WITH_SPECIFIED_SOURCE ( 'ANY', '', #187, .NOT_KNOWN. ) ;
#317 =( LENGTH_UNIT ( ) NAMED_UNIT ( * ) SI_UNIT ( .MILLI., .METRE. ) );
#318 = FACE_OUTER_BOUND ( 'NONE', #289, .T. ) ;
#319 = DIRECTION ( 'NONE',  ( 0.000000000000000000, 0.000000000000000000, 1.000000000000000000 ) ) ;
#320 = VERTEX_POINT ( 'NONE', #89 ) ;
#321 = CARTESIAN_POINT ( 'NONE',  ( -10.00000000000000000, -4.000000000000000000, -10.00000000000000000 ) ) ;
#322 = ORIENTED_EDGE ( 'NONE', *, *, #313, .F. ) ;
#323 = DIRECTION ( 'NONE',  ( 0.000000000000000000, 0.000000000000000000, 1.000000000000000000 ) ) ;
#324 = EDGE_LOOP ( 'NONE', ( #132, #262, #141, #129 ) ) ;
#325 = LINE ( 'NONE', #74, #76 ) ;
#326 = VECTOR ( 'NONE', #107, 1000.000000000000000 ) ;
#327 = ORIENTED_EDGE ( 'NONE', *, *, #151, .F. ) ;
#328 = CARTESIAN_POINT ( 'NONE',  ( 1.505703239551670824E-16, -4.000000000000000000, -1.229500000000000037 ) ) ;
#329 = CARTESIAN_POINT ( 'NONE',  ( 1.836970198721029934E-16, -4.000000000000000000, 1.500000000000000000 ) ) ;
#330 = ADVANCED_FACE ( 'PLANAR_2', ( #209 ), #60, .F. ) ;
#331 = DIRECTION ( 'NONE',  ( 0.000000000000000000, 1.000000000000000000, 0.000000000000000000 ) ) ;
#332 = AXIS2_PLACEMENT_3D ( 'NONE', #231, #28, #195 ) ;
#333 = DIRECTION ( 'NONE',  ( -1.000000000000000000, 0.000000000000000000, 0.000000000000000000 ) ) ;
#334 = EDGE_CURVE ( 'NONE', #16, #272, #118, .T. ) ;
#335 = MECHANICAL_DESIGN_GEOMETRIC_PRESENTATION_REPRESENTATION (  '', ( #9 ), #203 ) ;
#336 = EDGE_LOOP ( 'NONE', ( #295, #327, #154, #169 ) ) ;
#337 =( NAMED_UNIT ( * ) PLANE_ANGLE_UNIT ( ) SI_UNIT ( $, .RADIAN. ) );
#338 = AXIS2_PLACEMENT_3D ( 'NONE', #66, #133, #15 ) ;
#339 = VECTOR ( 'NONE', #166, 1000.000000000000000 ) ;
#340 = CYLINDRICAL_SURFACE ( 'NONE', #33, 1.229500000000000037 ) ;
#341 = FACE_OUTER_BOUND ( 'NONE', #249, .T. ) ;
#342 = DIRECTION ( 'NONE',  ( 0.000000000000000000, -0.000000000000000000, 1.000000000000000000 ) ) ;
#343 = EDGE_CURVE ( 'NONE', #247, #12, #263, .T. ) ;
#344 = EDGE_LOOP ( 'NONE', ( #44, #192, #354, #185 ) ) ;
#345 = DIRECTION ( 'NONE',  ( 0.000000000000000000, 1.000000000000000000, 0.000000000000000000 ) ) ;
#346 =( NAMED_UNIT ( * ) SI_UNIT ( $, .STERADIAN. ) SOLID_ANGLE_UNIT ( ) );
#347 = EDGE_LOOP ( 'NONE', ( #259, #352, #22, #75 ) ) ;
#348 = VECTOR ( 'NONE', #279, 1000.000000000000000 ) ;
#349 = CYLINDRICAL_SURFACE ( 'NONE', #95, 1.229500000000000037 ) ;
#350 = VERTEX_POINT ( 'NONE', #288 ) ;
#351 = CARTESIAN_POINT ( 'NONE',  ( 0.000000000000000000, -0.2705000000000003513, 1.229500000000000037 ) ) ;
#352 = ORIENTED_EDGE ( 'NONE', *, *, #88, .T. ) ;
#353 = CARTESIAN_POINT ( 'NONE',  ( -10.00000000000000000, 0.000000000000000000, -10.00000000000000000 ) ) ;
#354 = ORIENTED_EDGE ( 'NONE', *, *, #170, .T. ) ;
#355 = CARTESIAN_POINT ( 'NONE',  ( 1.505703239551670824E-16, -0.2705000000000003513, -1.229500000000000037 ) ) ;
#356 = AXIS2_PLACEMENT_3D ( 'NONE', #189, #149, #160 ) ;
#357 = LINE ( 'NONE', #355, #271 ) ;
#358 = DIRECTION ( 'NONE',  ( 8.659560562354926695E-17, 0.7071067811865481278, -0.7071067811865470176 ) ) ;
#359 = LINE ( 'NONE', #310, #315 ) ;
#360 = COLOUR_RGB ( '',0.7921568627450980005, 0.8196078431372548767, 0.9333333333333333481 ) ;
#361 = AXIS2_PLACEMENT_3D ( 'NONE', #294, #207, #232 ) ;
ENDSEC;
END-ISO-10303-21;
